Song name
# A B C D E F G H I J K L M N O P Q R S T U V W X Y Z

Mayonnaise - Pseudo tab

Help us improve GuitareTab! Take a short survey!
Pseudo

Hindi ko alam kung nasa tono yung gitara ko, taasan nyo na lang o babaan ng isang fret para katunog. 

Intro:

e|--------|     bass:
B|--------|     G|--------|--------|
G|--5--7--| 4x  D|--------|----3-2-|
D|--5--7--|     A|----3---|--5-----|
A|--3--5--|     E|--5---5-|--------|
E|--------|

Verse:

e|------------------------3---4-------------5-|
B|--------4-------6---------4---------4-8-9---|
G|--5---5-------7-------5-----------7---------|
D|--5-5-------7-------5-----------7-----------|
A|--3-------5-------3-----------5-------------|
E|--------------------------------------------|

e|------------------|-------|
B|--------4-------6-|-------|
G|------5-------7---|--5--7-|
D|----5-------7-----|--5--7-|
A|--3-------5-------|--3--5-|
E|------------------|-------|
                     
Chorus:

e|--------|--------|----|   |--------|   
B|--------|--------|----|   |--------|  
G|--5--7--|--55-44-|----|2x |--5--4--|
D|--5--7--|--55-44-|--7-|   |--5--4--|
A|--3--5--|--33-22-|--7-|   |--3--2--|
E|--------|--------|--5-|   |--------|
   
Play intro 2x

Verse2:

e|-------|strum chords only on:
B|-------|... to see the beauty of the moonlight
G|--5--7-|
D|--5--7-|
A|--3--5-|
E|-------|

Repeat chorus
Play whole intro
Repeat verse1
Repeat chorus
End: same as intro

tabbed by: mj08 magpayo
mj_080@yahoo.com
09206285554
Related for Pseudo tab