Song name
# A B C D E F G H I J K L M N O P Q R S T U V W X Y Z

Mayonnaise - 503 tab

TUNING:HALF STEP
5:03by Mayonnaise
Tabbed by dousdevineleech


INTRO:
|----------------------------------|
|----------------------------------|
|-8s999-8888-6666-4444-------------|
|-8s999-9999-7777-4444-------------|
|-6s777-7777-5555-2222-------------|
|----------------------------------|

|-------7--------------------------|
|----------------------------------|
|-8s999-8888-6666-4444-------------|
|-8s999-9999-7777-4444-------------|
|-6s777--777-5555-2222-------------|
|----------------------------------|

Then:
|------------------------------------------|
|---12-------------12-12h14-12-------------|
|8-9--8h9-8-----8-9-------------13b-11-9---|
|----------11-9---------------14-----------|
|------------------------------------------|
|------------------------------------------|

Verse1:
|----------------------------------|
|----------------------------------|
|-8s999-8888-6666-4444-------------|
|-8s999-9999-7777-4444-------------|4x
|-6s777-7777-5555-2222-------------|
|----------------------------------|

Refrain:
F#m A F#m A(2x)
then Chorus:
E F#m A2(3x) C#m B A2

After chorus:
|------------------------------------------|
|---12-------------12-12h14-12-------------|
|8-9--8h9-8-----8-9-------------13b-11-9---|
|----------11-9---------------14-----------|
|------------------------------------------|
|------------------------------------------|

Verse2:
*do the same in verse 1..
Chorus:
E F#m A2(3x) C#m B A2

pgktpos ng 2nd Chorus..
Play ung intro hanggang matpos ung ablib!

e2 solo: 
dahan2x    |-----------w/ wah wah-------------------|
---------|--------------------------------------------|
---------|-11s14-12--9h10-9---------------9h12p9------|
-----9\--|-----------------9-----9-9--9h11------11-9--|
-9h11----|-------------------9h11---------------------|
---------|--------------------------------------------|
---------|--------------------------------------------|

---------------------------------------------------------|
-------------9-12-9----------12-10-9-10-9-10-9-9-10h12---|
-----9-9-9h11------11-9-11-9--------------------------9--|
-9h11----------------------------------------------------|
---------------------------------------------------------|
---------------------------------------------------------|

---------------------------------------------------------|
-------------9-12-9----------12-12-10-10-99-10-10-9-9----|
-----9-9-9h11------11-9-11-9---------------------11-11-9-|
-9h11----------------------------------------------------|
---------------------------------------------------------|
---------------------------------------------------------|

|---------2x-------|
---------------------------------------------------------|
---------9h12p9----------------------10\-----------------|
-----9h11------11-9---------9-------9--------------------|
-9h11-------------------9h11-11-9h11---------------------|
---------------------------------------------------------|
---------------------------------------------------------|
(Repeat Refrain)
(Repeat Chorus)
Then outro:
G# B#m E

Yun lang!! sana mgustuhan nyo...
yan... email nyo nlng kung mali... kidd05_bb@yahoo
Tap to rate this tab
 
# A B C D E F G H I J K L M N O P Q R S T U V W X Y Z