Song name
# A B C D E F G H I J K L M N O P Q R S T U V W X Y Z

Mazarin - Another One Goes By tab

Another One Goes By
We're Already There (i and ear records, 2005)
http://www.mazarinband.com/
email: witmachine@yahoo.com

This is a song by the Philidelphia group, Mazarin.  They will retire the name January 1, 2007.

intro:
Eb  Gm  Fm  Bb
Eb  Gm  Fm  Bb


Eb
kissing your skin
	 Gm		  Fm	     Bb
your skeleton splinters my daydreams
Eb			Gm	       Fm	B  Bb
under this other street everything sings
Eb
shadows slide across the wall
Gm
i walk outside and
		  Fm			B  Bb
i try to see you right in front of me
Eb				Gm
a silhouette is something sweet
		Fm	Bb
it's so bright


Bb
i don't know what to offer you
Dm		    Cm		F
i'm only broke and lonely
Bb		     Dm
and another one goes
		  Cm	Cm  F
and another one goes by

Bb
sometimes when i step outside
Dm			  Cm		Cm  F
i see you standing right in front of me
Bb		     Dm
and another one goes
Dm		Cm	F
and another one goes by


[solo]

note: letters a, b, c and d represent frets 10, 11, 12 and 13
respectively.  I did this to help keep the rhythm.

    1 + 2 + 3 + 4 + 1 + 2 + 3 + 4 + 1 + 2 + 3 + 4 + 1 + 2 + 3 + 4 +
    Eb          Eb  Gm	        Gm  Fm	        Fm  Bb    Bb    Bb
e-------------------------------------------------------------------|
B-------------------------------------------------------------------|
G-----------------------------3---1---1-1-//5-3-1-------------------|
D---1---1-1-3-5---5---5-5-5/6---------------------5---3---3-6--5--3-|
A-------------------------------------------------------------------|
E-------------------------------------------------------------------|

    Eb          Eb  Gm	        Gm  Fm	        Fm    B  B   Bb Bb
e-------------------------------------------------------------------|
B-----------------------------------------------------6-6-6-9--9--9-|
G-------------------3-----3-5b7---7---5-5-5-5--8--8---7-7-7-a--a--a-|
D-----1-1-1-3-/5--5----5--------------------------------------------|
A-------------------------------------------------------------------|
E-------------------------------------------------------------------|

    Eb          Eb  Gm	        Gm  Fm	        Fm    B  B   Bb Bb
e------------d--a-----------a---------a-----d--a--------------------|
B---b--d--b--------d--b--d------b--d-----b--------d---b--b--b--9--9-|
G--c--c--c-c---c--c--c-c---c---c--c--c--c-c---c-c-----c--c--c--a--a-|
D-------------------------------------------------------------------|
A-------------------------------------------------------------------|
E-------------------------------------------------------------------|

    Eb          Eb  Gm	        Gm  Fm	        Fm  Bb
e-------------d--a-----------a--------------------------------------|
B----b--d--b--------d--d--d-----b--d--d--d--b--b--b-b--a--9---9-9---|
G-a/c--c--c--c--c--c-c---c-c---c--c--c--c--c-c----c-c--b--a---a-a---|
D-------------------------------------------------------------------|
A-------------------------------------------------------------------|
E-------------------------------------------------------------------|


Bb
i don't know what to offer you
Dm		    Cm		F
i'm only broke and lonely
Bb		     Dm
and another one goes
		  Cm	Cm  F
and another one goes by


Bb
sometimes when i walk outside
Dm			  	   Cm	    Cm	F
i see it right in front of me it's so bright
Bb		     Dm
and another one goes
		  Cm		  Cm	 F
and another one goes and another goes by


    Eb          Eb  Gm	        Gm  Fm	        Fm    Bb
e-------------d--a-----------a--------a--d--a-----------------------|
B----b--d--b--------d--b--d-----b--d-----------d--b--b--d--b--9--9--|
G-a/c--c--c-c---c-c---c-c---c--c--c--c--c--c--c--c--c-c---c-c---a-a-|
D-------------------------------------------------------------------|
A-------------------------------------------------------------------|
E-------------------------------------------------------------------|


[fade out]

    Eb          Eb  Gm	        Gm  Fm	        Fm  Bb    Bb    Bb
e-------------d--a-----------a---------------------------------------|
B----b--d--b--------d--b--d-b---d--b--9--9--9--9--9----b--b--b--9--9-|
G-a/c--c--c-c---c-c---c-c-----c---c-c---a-a---a-a---a/c--c-c---a-a---|
D--------------------------------------------------------------------|
A--------------------------------------------------------------------|
E--------------------------------------------------------------------|
Tap to rate this tab
# A B C D E F G H I J K L M N O P Q R S T U V W X Y Z