Guitaretab - guitar tabs
Song name
# A B C D E F G H I J K L M N O P Q R S T U V W X Y Z

Mazzy Star - Into Dust tab

	     INTO DUST  Mazzy Star
---------------------------------------------------------------------
Tabbed by: Sazza~xoxox
Email: Sam_isnt@hotmail.com

e|-------------------------------------------------------------------|
B|-------------3------3------3------3------3------3-------3------3---|
G|-----------------2------------2-------------2---------------2------|
D|----------0-------------0-------------0-------------0--------------|
A|-------------------------------------------------------------------|
E|-------------------------------------------------------------------|

e|-------------------------------------------------------------------|
B|-------------3------3------3------3------3------3-------3------3---|
G|-----------------2------------2-------------2---------------2------|
D|----------0-------------0-------------0-------------0--------------|
A|-------------------------------------------------------------------|
E|-------------------------------------------------------------------|

e|-------------------------------------------------------------------|
B|-------------3------3-------3-------3--------3------3-----3-----3--|
G|-----------------0--------------0---------------0------------0-----|
D|---------3--------------3----------------2-------------2-----------|
A|-------------------------------------------------------------------|
E|-------------------------------------------------------------------|

e|-------------------------------------------------------------------|
B|--------------3-----3------3------3-----3------3----3-----3--------|
G|-----------------2-------------2------------2----------2-----------|
D|----------0-------------0-------------0-----------0----------------|
A|-------------------------------------------------------------------|
E|-------------------------------------------------------------------|

e|-------------------------------------------------------------------|
B|-------------3------3-------3-------3--------3------3-----3-----3--|
G|-----------------0--------------0---------------0------------0-----|
D|---------3--------------3----------------2-------------2-----------|
A|-------------------------------------------------------------------|
E|-------------------------------------------------------------------|

e|-------------------------------------------------------------------|
B|-------------3------3------3------3------3------3-------3------3---|
G|-----------------2------------2-------------2---------------2------|
D|----------0-------------0-------------0-------------0--------------|
A|-------------------------------------------------------------------|
E|-------------------------------------------------------------------|

e|-------------------------------------------------------------------|
B|-------------3------3-------3-------3--------3------3-----3-----3--|
G|-----------------0--------------0---------------0------------0-----|
D|---------3--------------3----------------2-------------2-----------|
A|-------------------------------------------------------------------|
E|-------------------------------------------------------------------|


e|-------------------------------------------------------------------|
B|-------------3------3------3------3------3------3-------3------3---|
G|-----------------2------------2-------------2---------------2------|
D|----------0-------------0-------------0-------------0--------------|
A|-------------------------------------------------------------------|
E|-------------------------------------------------------------------|

e|-------------------------------------------------------------------|
B|-------------3------3-------3-------3--------3------3-----3-----3--|
G|-----------------0--------------0---------------0------------0-----|
D|---------3--------------3----------------2-------------2-----------|
A|-------------------------------------------------------------------|
E|-------------------------------------------------------------------|

e|-------------------------------------------------------------------|
B|-------------3------3------3------3------3------3-------3------3---|
G|-----------------2------------2-------------2---------------2------|
D|----------0-------------0-------------0-------------0--------------|
A|-------------------------------------------------------------------|
E|-------------------------------------------------------------------|

e|-------------------------------------------------------------------|
B|-------------3------3-------3-------3--------3------3-----3-----3--|
G|-----------------0--------------0---------------0------------0-----|
D|---------3--------------3----------------2-------------2-----------|
A|-------------------------------------------------------------------|
E|-------------------------------------------------------------------|

e|-------------------------------------------------------------------|
B|-------------3------3------3------3------3------3-------3------3---|
G|-----------------2------------2-------------2---------------2------|
D|----------0-------------0-------------0-------------0--------------|
A|-------------------------------------------------------------------|
E|-------------------------------------------------------------------|

e|-------------------------------------------------------------------|
B|-------------3------3-------3-------3--------3------3-----3-----3--|
G|-----------------0--------------0---------------0------------0-----|
D|---------3--------------3----------------2-------------2-----------|
A|-------------------------------------------------------------------|
E|-------------------------------------------------------------------|

e|-------------------------------------------------------------------|
B|-------------3------3------3------3------3------3-------3------3---|
G|-----------------2------------2-------------2---------------2------|
D|----------0-------------0-------------0-------------0--------------|
A|-------------------------------------------------------------------|
E|-------------------------------------------------------------------|

e|-------------------------------------------------------------------|
B|-------------3------3-------3-------3--------3------3-----3-----3--|
G|-----------------0--------------0---------------0------------0-----|
D|---------3--------------3----------------2-------------2-----------|
A|-------------------------------------------------------------------|
E|-------------------------------------------------------------------|


e|-------------------------------------------------------------------|
B|-------------3------3------3------3------3------3-------3------3---|
G|-----------------2------------2-------------2---------------2------|
D|----------0-------------0-------------0-------------0--------------|
A|-------------------------------------------------------------------|
E|-------------------------------------------------------------------|

e|-------------------------------------------------------------------|
B|-------------3------3-------3-------3--------3------3-----3-----3--|
G|-----------------0--------------0---------------0------------0-----|
D|---------3--------------3----------------2-------------2-----------|
A|-------------------------------------------------------------------|
E|-------------------------------------------------------------------|

e|-------------------------------------------------------------------|
B|-------------3------3------3------3------3------3-------3------3---|
G|-----------------2------------2-------------2---------------2------|
D|----------0-------------0-------------0-------------0--------------|
A|-------------------------------------------------------------------|
E|-------------------------------------------------------------------|

e|-------------------------------------------------------------------|
B|-------------3------3-------3-------3--------3------3-----3-----3--|
G|-----------------0--------------0---------------0------------0-----|
D|---------3--------------3----------------2-------------2-----------|
A|-------------------------------------------------------------------|
E|-------------------------------------------------------------------|

e|-------------------------------------------------------------------|
B|-------------3------3------3------3------3------3-------3------3---|
G|-----------------2------------2-------------2---------------2------|
D|----------0-------------0-------------0-------------0--------------|
A|-------------------------------------------------------------------|
E|-------------------------------------------------------------------|

e|-------------------------------------------------------------------|
B|-------------3------3-------3-------3--------3------3-----3-----3--|
G|-----------------0--------------0---------------0------------0-----|
D|---------3--------------3----------------2-------------2-----------|
A|-------------------------------------------------------------------|
E|-------------------------------------------------------------------|

e|-------------------------------------------------------------------|
B|-------------3------3------3------3------3------3-------3------3---|
G|-----------------2------------2-------------2---------------2------|
D|----------0-------------0-------------0-------------0--------------|
A|-------------------------------------------------------------------|
E|-------------------------------------------------------------------|

e|--------------------------------------------------------------------|
B|-------------0-----------------0---------------0------------0-------|
G|---------3-------3---------3-------3-------3-------3------3-----3---|
D|-----3-----------------3----------------2--------------2------------|
A|--------------------------------------------------------------------|
E|--------------------------------------------------------------------|


e|-------------------------------------------------------------------|
B|-------------3------3------3------3------3------3-------3------3---|
G|-----------------2------------2-------------2---------------2------|
D|----------0-------------0-------------0-------------0--------------|
A|-------------------------------------------------------------------|
E|-------------------------------------------------------------------|

e|-------------------------------------------------------------------|
B|-------------3------3-------3-------3--------3------3-----3-----3--|
G|-----------------0--------------0---------------0------------0-----|
D|-------------------------------------------------------------------|
A|---------3-------------3---------------2------------2--------------|
E|-------------------------------------------------------------------|

e|-------------------------------------------------------------------|
B|-------------3------3------3------3------3------3-------3------3---|
G|-----------------2------------2-------------2---------------2------|
D|----------0-------------0-------------0-------------0--------------|
A|-------------------------------------------------------------------|
E|-------------------------------------------------------------------|

e|-------------------------------------------------------------------|
B|-------------3------3-------3-------3--------3------3-----3-----3--|
G|-----------------0--------------0---------------0------------0-----|
D|-------------------------------------------------------------------|
A|---------3-------------3---------------2------------2--------------|
E|-------------------------------------------------------------------|
[ Tab from: http://www.guitaretab.com/m/mazzy-star/11425.html ]
e|--------------------------------------------------------------------|
B|-------------3------3------3------3------3------3-------3------3----|
G|-----------------2------------2-------------2---------------2-------|
D|----------0-------------0-------------0-------------0---------------|
A|--------------------------------------------------------------------|
E|--------------------------------------------------------------------|

e|--------------------------------------------------------------------|
B|-------------3------3-------3-------3--------3------3-----3-----3---|
G|-----------------0--------------0---------------0------------0------|
D|--------------------------------------------------------------------|
A|---------3-------------3---------------2------------2---------------|
E|--------------------------------------------------------------------|

e|--------------------------------------------------------------------|
B|-------------3------3------3------3------3------3-------3------3----|
G|-----------------2------------2-------------2---------------2-------|
D|----------0-------------0-------------0-------------0---------------|
A|--------------------------------------------------------------------|
E|--------------------------------------------------------------------|

e|--------------------------------------------------------------------|
B|-------------3------3-------3-------3--------3------3-----3-----3---|
G|-----------------0--------------0---------------0------------0------|
D|--------------------------------------------------------------------|
A|---------3-------------3---------------2------------2---------------|
E|--------------------------------------------------------------------|


e|-------------------------------------------------------------------|
B|-------------3------3------3------3------3------3-------3------3---|
G|-----------------2------------2-------------2---------------2------|
D|----------0-------------0-------------0-------------0--------------|
A|-------------------------------------------------------------------|
E|-------------------------------------------------------------------|

e|-------------------------------------------------------------------|
B|-------------3------3-------3-------3--------3------3-----3-----3--|
G|-----------------0--------------0---------------0------------0-----|
D|-------------------------------------------------------------------|
A|---------3-------------3---------------2------------2--------------|
E|-------------------------------------------------------------------|

e|--------------------------------------------------------------------|
B|-------------3------3------3------3------3------3-------3------3----|
G|-----------------2------------2-------------2---------------2-------|
D|----------0-------------0-------------0-------------0---------------|
A|--------------------------------------------------------------------|
E|--------------------------------------------------------------------|

e|-------------------------------------------------------------------|
B|-------------3------3-------3-------3--------3------3-----3-----3--|
G|-----------------0--------------0---------------0------------0-----|
D|-------------------------------------------------------------------|
A|---------3-------------3---------------2------------2--------------|
E|-------------------------------------------------------------------|

e|--------------------------------------------------------------------|
B|-------------3------3-------3-------3--------3------3-----3-----3---|
G|-----------------0--------------0---------------0------------0------|
D|--------------------------------------------------------------------|
A|---------1-------------1---------------1------------1---------------|
E|--------------------------------------------------------------------|

e|--------------------------------------------------------------------|
B|-------------3------3------3------3------3------3-------3------3----|
G|-----------------2------------2-------------2---------------2-------|
D|----------0-------------0-------------0-------------0---------------|
A|--------------------------------------------------------------------|
E|--------------------------------------------------------------------|

e|--------------------------------------------------------------------|
B|-------------3------3------3------3------3------3-------3------3----|
G|-----------------2------------2-------------2---------------2-------|
D|----------0-------------0-------------0-------------0---------------|
A|--------------------------------------------------------------------|
E|--------------------------------------------------------------------|

e|--------------------------------------------------------------------|
B|-------------3------3-------3-------3--------3------3-----3-----3---|
G|-----------------0--------------0---------------0------------0------|
D|--------------------------------------------------------------------|
A|---------3-------------3---------------2------------2---------------|
E|--------------------------------------------------------------------|


e|--------------------------------------------------------------------|
B|-------------3------3------3------3------3------3-------3------3----|
G|-----------------2------------2-------------2---------------2-------|
D|----------0-------------0-------------0-------------0---------------|
A|--------------------------------------------------------------------|
E|--------------------------------------------------------------------|

e|--------------------------------------------------------------------|
B|-------------3------3-------3-------3--------3------3-----3-----3---|
G|-----------------0--------------0---------------0------------0------|
D|--------------------------------------------------------------------|
A|---------3-------------3---------------2------------2---------------|
E|--------------------------------------------------------------------|

e|--------------------------------------------------------------------|
B|-------------3------3------3------3------3------3-------3------3----|
G|-----------------2------------2-------------2---------------2-------|
D|----------0-------------0-------------0-------------0---------------|
A|--------------------------------------------------------------------|
E|--------------------------------------------------------------------|

e|--------------------------------------------------------------------|
B|-------------3------3-------3-------3--------3------3-----3-----3---|
G|-----------------0--------------0---------------0------------0------|
D|--------------------------------------------------------------------|
A|---------3-------------3---------------2------------2---------------|
E|--------------------------------------------------------------------|

e|--------------------------------------------------------------------|
B|-------------3------3------3------3------3------3-------3------3----|
G|-----------------2------------2-------------2---------------2-------|
D|----------0-------------0-------------0-------------0---------------|
A|--------------------------------------------------------------------|
E|--------------------------------------------------------------------|

e|--------------------------------------------------------------------|
B|-------------3------3-------3-------3--------3------3-----3-----3---|
G|-----------------0--------------0---------------0------------0------|
D|--------------------------------------------------------------------|
A|---------3-------------3---------------2------------2---------------|
E|--------------------------------------------------------------------|

e|--------------------------------------------------------------------|
B|-------------3------3------3------3------3------3-------3------3----|
G|-----------------2------------2-------------2---------------2-------|
D|----------0-------------0-------------0-------------0---------------|
A|--------------------------------------------------------------------|
E|--------------------------------------------------------------------|

e|--------------------------------------------------------------------|
B|-------------3------3-------3-------3--------3------3-----3-----3---|
G|-----------------0--------------0---------------0------------0------|
D|--------------------------------------------------------------------|
A|---------3-------------3---------------2------------2---------------|
E|--------------------------------------------------------------------|


e|--------------------------------------------------------------------|
B|-------------3------3------3------3------3------3-------3------3----|
G|-----------------2------------2-------------2---------------2-------|
D|----------0-------------0-------------0-------------0---------------|
A|--------------------------------------------------------------------|
E|--------------------------------------------------------------------|

e|--------------------------------------------------------------------|
B|-------------0-----------------0---------------0------------0-------|
G|---------3-------3---------3-------3-------3-------3------3-----3---|
D|-----3-----------------3----------------2--------------2------------|
A|--------------------------------------------------------------------|
E|--------------------------------------------------------------------|

e|--------------------------------------------------------------------|
B|-------------3------3------3------3------3------3-------3------3----|
G|-----------------2------------2-------------2---------------2-------|
D|----------0-------------0-------------0-------------0---------------|
A|--------------------------------------------------------------------|
E|--------------------------------------------------------------------|

e|--------------------------------------------------------------------|
B|-------------3------3-------3-------3--------3------3-----3-----3---|
G|-----------------0--------------0---------------0------------0------|
D|--------------------------------------------------------------------|
A|---------3-------------3---------------2------------2---------------|
E|--------------------------------------------------------------------|

e|--------------------------------------------------------------------|
B|-------------3------3------3------3------3------3-------3------3----|
G|-----------------2------------2-------------2---------------2-------|
D|----------0-------------0-------------0-------------0---------------|
A|--------------------------------------------------------------------|
E|--------------------------------------------------------------------|

e|--------------------------------------------------------------------|
B|-------------3------3-------3-------3--------3------3-----3-----3---|
G|-----------------0--------------0---------------0------------0------|
D|--------------------------------------------------------------------|
A|---------3-------------3---------------2------------2---------------|
E|--------------------------------------------------------------------|

e|--------------------------------------------------------------------|
B|-------------3------3------3------3------3------3-------3------3----|
G|-----------------2------------2-------------2---------------2-------|
D|----------0-------------0-------------0-------------0---------------|
A|--------------------------------------------------------------------|
E|--------------------------------------------------------------------|

Solo at end
e|-3-7-3-7-3-0-3-----1-5-1-5---1-----3-7-3-7-3-7-3-----1-5-1---1-5-1-|
B|---------------------------1-------------------------------1-------|
G|-------------------------------------------------------------------|
D|-------------------------------------------------------------------|
A|-------------------------------------------------------------------|
E|-------------------------------------------------------------------|
Related for Into Dust tab