Song name
# A B C D E F G H I J K L M N O P Q R S T U V W X Y Z

Mazzy Star - California tab

Band: Mazzy Star
Album: Seasons of Your Day
Song: California
Tabbed by: jedichewy

Tuning: Standard

Took me awhile to tab this one, and here it is.
Please listen to the song for the strumming and picking patterns. Enjoy!


Intro:


e|------0---------------0---------------0---------------0---------------|
B|------3---------------3---------------3---------------3---------------|
G|------2---------------3---------------2---------------3---------------|
D|------0---------------0---------------0---------------0---------------|
A|----------------------------------------------------------------------|
E|----------------------------------------------------------------------|


e|------0---------------0---------------0---------------0---------------|
B|------3---------------5---------------3---------------5---------------|
G|------3---------------5---------------3---------------5---------------|
D|------3---------------5---------------3---------------5---------------|
A|------1---------------3---------------1---------------3---------------|
E|----------------------------------------------------------------------|

(1)

e|------0---------------0---------------0---------------0---------------|
B|------3---------------3---------------3---------------3---------------|
G|------2---------------3---------------2---------------3---------------|
D|------0---------------0---------------0---------------0---------------|
A|----------------------------------------------------------------------|
E|----------------------------------------------------------------------|
         I   think I'm going            back  to California


e|------0---------------0---------------0---------------0---------------|
B|------3---------------3---------------3---------------3---------------|
G|------2---------------3---------------2---------------3---------------|
D|------0---------------0---------------0---------------0---------------|
A|----------------------------------------------------------------------|
E|----------------------------------------------------------------------|
     Summer          distant          and     it's so far away



e|------0---------------0---------------0---------------0---------------|
B|------3---------------5---------------3---------------5---------------|
G|------3---------------5---------------3---------------5---------------|
D|------3---------------5---------------3---------------5---------------|
A|------1---------------3---------------1---------------3---------------|
E|----------------------------------------------------------------------|
               it's so far                      it's so far...   far


e|------2---------------|
B|------3---------------|
G|------2---------------|
D|------0---------------|
A|----------------------|
E|----------------------|
       away....


e|------0-----------0-----------0-----------0-----------2-----------|
B|------3-----------5-----------3-----------5-----------3-----------|
G|------3-----------5-----------3-----------5-----------2-----------|
D|------3-----------5-----------3-----------5-----------0-----------|
A|------1-----------3-----------1-----------3-----------------------|
E|------------------------------------------------------------------|

(2)

e|------1-----------------------------------2----------------------|
B|------3-----------------------------------3----------------------|
G|------2-----------------------------------2----------------------|
D|------0-----------------------------------0----------------------|
A|-----------------------------------------------------------------|
E|-----------------------------------------------------------------|
         I think  I'll drift  across the ocean  now


e|------1-----------------------------------2---------------------|
B|------3-----------------------------------3---------------------|
G|------2-----------------------------------2---------------------|
D|------0-----------------------------------0---------------------|
A|----------------------------------------------------------------|
E|----------------------------------------------------------------|
        Clouds  look so   clear      in your eyes


e|------0---------------0---------------0---------------0---------------|
B|------3---------------5---------------3---------------5---------------|
G|------3---------------5---------------3---------------5---------------|
D|------3---------------5---------------3---------------5---------------|
A|------1---------------3---------------1---------------3---------------|
E|----------------------------------------------------------------------|
          Let me       bring all     my        Let me bring  all


e|-----2-----------------|
B|-----3-----------------|
G|-----2-----------------|
D|-----0-----------------|
A|-----------------------|
E|-----------------------|
   my friends


e|------0-------0-------0-------0-------0-------0-------2-----------|
B|------3-------5-------3-------5-------3-------5-------3-----------|
G|------3-------5-------3-------5-------3-------5-------2-----------|
D|------3-------5-------3-------5-------3-------5-------0-----------|
A|------1-------3-------1-------3-------1-------3-------------------|
E|------------------------------------------------------------------|

(3)

e|------1-----------------------------------2---------------|
B|------3-----------------------------------3---------------|
G|------2-----------------------------------2---------------|
D|------0-----------------------------------0---------------|
A|----------------------------------------------------------|
E|----------------------------------------------------------|
           I think I'll float     across the ocean


e|------1-----------------------------------2----------------|
B|------3-----------------------------------3----------------|
G|------2-----------------------------------2----------------|
D|------0-----------------------------------0----------------|
A|-----------------------------------------------------------|
E|-----------------------------------------------------------|
      I can watch    the sky         turning gray


e|------0---------------0---------------0---------------0---------------|
B|------3---------------5---------------3---------------5---------------|
G|------3---------------5---------------3---------------5---------------|
D|------3---------------5---------------3---------------5---------------|
A|------1---------------3---------------1---------------3---------------|
E|----------------------------------------------------------------------|
           I think I'm going back          I think I'll go


e|-----2----------------|
B|-----3----------------|
G|-----2----------------|
D|-----0----------------|
A|----------------------|
E|----------------------|
      back...


e|------5-----------------------------------2---------------|
B|------3-----------------------------------3---------------|
G|------2-----------------------------------2---------------|
D|------0-----------------------------------0---------------|
A|----------------------------------------------------------|
E|----------------------------------------------------------|

e|------5-----------------------------------2---------------|
B|------3-----------------------------------3---------------|
G|------2-----------------------------------2---------------|
D|------0-----------------------------------0---------------|
A|----------------------------------------------------------|
E|----------------------------------------------------------|



e|------0-----------0-----------0-----------0----------0-------|
B|------3-----------5-----------3-----------5----------3-------|
G|------3-----------5-----------3-----------5----------3-------|
D|------3-----------5-----------3-----------5----------3-------|
A|------1-----------3-----------1-----------3----------1-------|
E|-------------------------------------------------------------|
         I think I hear the   whisper of my own best friend


e|------0--------------------0-------------0--------------3----|
B|------5--------------------3-------------5--------------2----|
G|------5--------------------3-------------5--------------3----|
D|------5--------------------3-------------5--------------0----|
A|------3--------------------1-------------3-------------------|
E|-------------------------------------------------------------|
        I think I hear the bells ringing  in the square


e|------1-----------------------------------2---------------|
B|------3-----------------------------------3---------------|
G|------2-----------------------------------2---------------|
D|------0-----------------------------------0---------------|
A|----------------------------------------------------------|
E|----------------------------------------------------------|
      in California           in California

e|------1-----------------------------------2---------------|
B|------3-----------------------------------3---------------|
G|------2-----------------------------------2---------------|
D|------0-----------------------------------0---------------|
A|----------------------------------------------------------|
E|----------------------------------------------------------|

e|------5----------------5---------------|
B|------3----------------3---------------|
G|------2----------------2---------------|
D|------0----------------0---------------|
A|---------------------------------------|
E|---------------------------------------|

Picking part:

e|----------------------------------------------------------|
B|------3--------------3-------3-------0-----3--------------|
G|--------------2-------------------------------------------|
D|------0----0-----0------0----0----0-----0-----0-----------|
A|----------------------------------------------------------|
E|----------------------------------------------------------|

e|------0-------------0-------2-------------2---------------|
B|--------------1---------------------3---------------------|
G|----------------------------------------------------------|
D|------0----0-----0-----0----0----0-----0-----0------------|
A|----------------------------------------------------------|
E|----------------------------------------------------------|

e|---------------------------------------------------------|
B|------3--------------3-------3-------0-----3-------------|
G|--------------2------------------------------------------|
D|------0----0-----0------0----0----0-----0-----0----------|
A|---------------------------------------------------------|
E|---------------------------------------------------------|

e|------0-------------0-------2-------------2--------------|
B|--------------1---------------------3--------------------|
G|---------------------------------------------------------|
D|------0----0-----0-----0----0----0-----0-----0-----------|
A|---------------------------------------------------------|
E|---------------------------------------------------------|

e|------0-----2-----------0------2-------------------------|
B|------------------3------------------3-------------------|
G|---------------------------------------------------------|
D|---------0-----0-----0-----0------0-----0----------------|
A|---------------------------------------------------------|
E|---------------------------------------------------------|

e|------0-----2-------------5-------------5----------------|
B|------------------3---------------6----------------------|
G|---------------------------------------------------------|
D|---------0-----0-----0----0----0-----0-----0-------------|
A|---------------------------------------------------------|
E|---------------------------------------------------------|

e|--------------5-------------------5-------------------5--------------|
B|------5-------------6-------5-----------6-------5-----------6--------|
G|---------------------------------------------------------------------|
D|-----------0-----0-----0-------0-----0-----0-------0-----0-----0-----|
A|---------------------------------------------------------------------|
E|---------------------------------------------------------------------|

e|-----2-------------2-----0-----2-----------0-----2----------------|
B|-------------3-----------------------3-----------------3----------|
G|------------------------------------------------------------------|
D|-----0----0-----0-----0-----0-----0-----0-----0-----0-----0-------|
A|------------------------------------------------------------------|
E|------------------------------------------------------------------|

e|------0-----2-------------5-------------5-----------------------|
B|------------------3---------------6-----------------------------|
G|----------------------------------------------------------------|
D|---------0-----0-----0----0----0-----0-----0--------------------|
A|----------------------------------------------------------------|
E|----------------------------------------------------------------|


(Repeat this part as needed, it is played a few times)
e|--------------5-------------------5-------------------5--------------|
B|------5-------------6-------5-----------6-------5-----------6--------|
G|---------------------------------------------------------------------|
D|-----------0-----0-----0-------0-----0-----0-------0-----0-----0-----|
A|---------------------------------------------------------------------|
E|---------------------------------------------------------------------|


(The last part of the picking part ends with this as it fades.)
e|-----2-------------2-----0-----2-----------0-----2----------------|
B|-------------3-----------------------3-----------------3----------|
G|------------------------------------------------------------------|
D|-----0----0-----0-----0-----0-----0-----0-----0-----0-----0-------|
A|------------------------------------------------------------------|
E|------------------------------------------------------------------|

e|----0-----2------------------|
B|----------------3------------|
G|-----------------------------|
D|-------0-----0-----0---------|
A|-----------------------------|
E|-----------------------------|

e|-----1-------------1-----0-----1-----------0-----1----------------|
B|-------------3-----------------------3-----------------3----------|
G|------------------------------------------------------------------|
D|-----0----0-----0-----0-----0-----0-----0-----0-----0-----0-------|
A|------------------------------------------------------------------|
E|------------------------------------------------------------------|

e|----0-----1------------------|
B|----------------3------------|
G|-----------------------------|
D|-------0-----0-----0---------|
A|-----------------------------|
E|-----------------------------|




The end.

Any feedback, just say so!
Tap to rate this tab
# A B C D E F G H I J K L M N O P Q R S T U V W X Y Z