Song name
# A B C D E F G H I J K L M N O P Q R S T U V W X Y Z

Mazzy Star - In The Kingdom chords

Highlighted       Show chord diagrams
Band: Mazzy Star
Album: Seasons of Your Day
Song: In the Kingdom
Tabbed by: jedichewy

Tuning: Standard

This is a chord tab for the organ progression that pretty much makes up the whole song.


Play as needed for the intro:


        F               C               Dm              C
e|------1---------------0---------------1---------------0---------------|
B|------1---------------1---------------3---------------1---------------|
G|------2---------------0---------------2---------------0---------------|
D|------3---------------2---------------0---------------2---------------|
A|------3---------------3-------------------------------3---------------|
E|------1---------------------------------------------------------------|



        F               C               Dm              C
e|------1---------------0---------------1---------------0---------------|
B|------1---------------1---------------3---------------1---------------|
G|------2---------------0---------------2---------------0---------------|
D|------3---------------2---------------0---------------2---------------|
A|------3---------------3-------------------------------3---------------|
E|------1---------------------------------------------------------------|
         I took that    train              into the     city



        F               C               Dm              C
e|------1---------------0---------------1---------------0---------------|
B|------1---------------1---------------3---------------1---------------|
G|------2---------------0---------------2---------------0---------------|
D|------3---------------2---------------0---------------2---------------|
A|------3---------------3-------------------------------3---------------|
E|------1---------------------------------------------------------------|
          You know the one that goes      under the   bridge...


Repeat as needed.


And that's the basic song as it fades.
Sorry I don't have the lead guitar solo bits.


Feedback? Just say so!
Tap to rate this tab
# A B C D E F G H I J K L M N O P Q R S T U V W X Y Z