Song name
# A B C D E F G H I J K L M N O P Q R S T U V W X Y Z

Mc Lars - The Dialogue tab

Help us improve GuitareTab! Take a short survey!
-------------------------------------------------------------------------------
	                   The Dialogue - MC Lars 
-------------------------------------------------------------------------------
Tabbed by:Sound Mind
Email:kagenecros@hotmail.com

Band: MC Lars ft. Ill Bill
Song: The Dialogue
Album: The Graduate
Year: 2006

Tuning:Standard


Verse 1:

  Q    H.           Q   H.           Q    H.          Q   H.
G|-----------------|----------------|----------------|----------------|
D|-3---2-----------|----------------|3---2-----------|----------------| x4
A|-----------------|3---0-----------|----------------|3---0-----------|
E|-----------------|----------------|----------------|----------------|
 

Chorus 1:

  Q    H.           Q   H.           Q    H.          Q   H.
G|-----------------|----------------|----------------|----------------|
D|-3---2-----------|----------------|3---2-----------|----------------| x2
A|-----------------|3---0-----------|----------------|3---0-----------|
E|-----------------|----------------|----------------|----------------|


Verse 2:

e|-----------------|----------------|----------------|----------------|
B|-----------------|----------------|----------------|----------------|
G|-----------------|----------------|----------------|----------------|
D|-----------------|----------------|----------------|----------------|
A|-----------------|----------------|----------------|----------------|
E|-----------------|----------------|----------------|----------------|

  Q    H.           Q   H.           Q    H.          Q   H.
e|-----------------|----------------|----------------|----------------|
B|-----------------|----------------|----------------|----------------|
G|10---9-----------|5---2-----------|10---9----------|5---2-----------|
D|10---9-----------|5---2-----------|10---9----------|5---2-----------|
A|-8---7-----------|3---0-----------|-8---7----------|3---0-----------| x2
E|-----------------|----------------|----------------|----------------|
 |
 |Q    H.           Q   H.           Q    H.          Q   H.
G|-----------------|----------------|----------------|----------------|
D|-3---2-----------|----------------|3---2-----------|----------------|
A|-----------------|3---0-----------|----------------|3---0-----------|
E|-----------------|----------------|----------------|----------------|


  Q    H.           Q   H.           Q    H.          Q   H
e|-----------------|----------------|----------------|----------------|
B|-----------------|----------------|----------------|----------------|
G|10---9-----------|5---2-----------|10---9----------|5---2-----------|
D|10---9-----------|5---2-----------|10---9----------|5---2-----------|
A|-8---7-----------|3---0-----------|-8---7----------|3---0-----------|
E|-----------------|----------------|----------------|----------------|
 |
 |Q    H.           Q   H.           Q    H.          Q   H
G|-----------------|----------------|----------------|----------------|
D|-3---2-----------|----------------|3---2-----------|----------------|
A|-----------------|3---0-----------|----------------|3---0-----------|
E|-----------------|----------------|----------------|----------------|


Chorus 2:

  Q    H.           Q   H.           Q    H.          Q   H.
G|-----------------|----------------|----------------|----------------|
D|-3---2-----------|----------------|3---2-----------|----------------| x2
A|-----------------|3---0-----------|----------------|3---0-----------|
E|-----------------|----------------|----------------|----------------|


Verse 3:

  Q    H.           Q   H.           Q    H.          Q   H.
G|-----------------|----------------|----------------|----------------|
D|-3---2-----------|----------------|3---2-----------|----------------| x4
A|-----------------|3---0-----------|----------------|3---0-----------|
E|-----------------|----------------|----------------|----------------|


Chorus 3/Outro:

  Q    H.           Q   H.           Q    H.          Q   H.
e|-----------------|----------------|----------------|----------------|
B|-----------------|----------------|----------------|----------------|
G|10---9-----------|5---2-----------|10---9----------|5---2-----------|
D|10---9-----------|5---2-----------|10---9----------|5---2-----------|
A|-8---7-----------|3---0-----------|-8---7----------|3---0-----------| 
E|-----------------|----------------|----------------|----------------|
 |
 |Q    H.           Q   H.           Q    H.          Q   H.
G|-----------------|----------------|----------------|----------------|
D|-3---2-----------|----------------|3---2-----------|----------------|
A|-----------------|3---0-----------|----------------|3---0-----------|
E|-----------------|----------------|----------------|----------------|

  Q    H.           Q   H.           
e|-----------------|----------------|
B|-----------------|----------------|
G|10---9-----------|5---2-----------|
D|10---9-----------|5---2-----------|
A|-8---7-----------|3---0-----------|
E|-----------------|----------------|
 |
 |Q    H.           Q   H.           
G|-----------------|----------------|
D|-3---2-----------|----------------|
A|-----------------|3---0-----------|
E|-----------------|----------------|


|Time: 
|E (eighth), 
|Q (Quarter), 
|H (Half), 
|W (Whole), 
|. (add half of note's value; Q. = Q + E)

| /  slide up
| \  slide down
| h  hammer-on
| p  pull-off
| ~  vibrato
| +  harmonic
| x  Mute note
===============================================================================
Related for The Dialogue tab