Song name
# A B C D E F G H I J K L M N O P Q R S T U V W X Y Z

Mc Lars - This Gigantic Robot Kills tab

So yeah this is technically my second tab ever but Im pretty sure this one wont be 
down. This is a badass ska song by a badass Mc. Enjoy!


Intro (palm mutes = *)
"Billy built a robot in his parents garage.."
E----------------------55-33-3----------------------------------------------|
B----------------------55-33-3----------------------------------------------|
G----------------------55-44-4----------------------------------------------|
D-10-----77-55--10-----77-55-5----------------------------------------------|
A-10-x20-77-55--10-x20-77-55-5----------------------------------------------|
e-8------55-33--8------55-33-3----------------------------------------------|
  *      ** **  *

Ska Verse (Up Stroke Avoid the high E as much as you can)
 "Billy was obsessed with third wave ska.."
E-8--8----------------------------------------------------------------------|
B-8--8----------------------------------------------------------------------|
G-8--10---------------------------------------------------------------------|
D-10-10---------------------------------------------------------------------|
A-10-8----------------------------------------------------------------------|
e-8-------------------------------------------------------------------------|

Figure out the rhythm its not very hard.

Chorus
"This gigantic robot kills..."
E---------------------------------------------------------------------------|
B---------------------------------------------------------------------------|
G----10---------------------------------------------------------------------|
D-10-10-10--5---------------------------------------------------------------|
A-10-8--10--5---------------------------------------------------------------|
e-8-----8---3--(Repeat)-----------------------------------------------------|

Repeat Verse (horn solo)

Repeat Chorus

Solo
"He'll make you do the tamigotchi.."
E---------------------------------------------------------------------------|
B---------------------------------------------------------------------------|
G---------------------------------------------------------------------------|
D-------------------------------55------------------------------------------|
A-------575-----------------575-55--(Repeat)--------------------------------|
e----858---33---(Pause)--858----33------------------------------------------|

Bridge

"Gigantic.. Gigantic..."
E-------------------------------------------------------------55-33-3-------|
B-------------------------------------------------------------55-33-3-------|
G------------10101010------------10101010---------------------55-44-4-------|
D--10101010--10101010--10101010--10101010---------------------77-55-5-------|
A--10101010--8-8-8-8---10101010--8-8-8-8----------------------77-55-5-------|
e--8-8-8-8-------------8-8-8-8--------------------------------55-33-3-------|
   *******   ********  ********  ********   (repeat as needed end with)

Chorus x 2

End On

E--------|
B--------|
G--------|
D-1010---|
A-1010---|
e-8-8----|

Please comment and enjoy :)

-Koontzybear
Tap to rate this tab
 
# A B C D E F G H I J K L M N O P Q R S T U V W X Y Z