Mc Lars - Guitar Hero Hero tab

-------------------------------------------------------------------------------
			     SONG NAME guitar hero hero - Band Name mc lars
-------------------------------------------------------------------------------
Tabbed by:kieran satchell
Email:

Tuning:standard
Ok this is my very ever
first tab im 15 and love
 this song i am verY pleased
when i made this up after finding
 no tabs for it myself because i
generally felt it sounded like it
 so i felt a scence of acheivement
SO if you dont like it....shove off
 cuz this is (as far as i know) the only
tab for it so please dont knock it good luck!
The rythem is all down to you! hahaha
e|-----------------------------------------------------------------------------|
B|-----------------------------------------------------------------------------|
G|----------------------------5-5-5-7-7-------------------------5-5-5-7-7------|
D|-7-7-7-\-5--7-7-7-\-5--7-7--5-5-5-7-7-7-7-7---5-7-7-7-\-5-7-7-5-5-5-7-7------|
A|-7-7-7-\-5--7-7-7-\-5--7-7--3-3-3-5-5-7-7-7---5-7-7-7-\-5-7-7-3-3-3-5-5------|
E|-5-5-5-\-3--5-5-5-\-3--5-5------------5-5-5-\-3-5-5-5-\-3-5-5----------------|

e|--------------------------------------------------------------------------|
B|--------------------------------------------------------------------------|
G|-7-7-7-7-7-7-7-10-10-10-10-10-10-10---------------------------------------|
D|-7-7-7-7-7-7-7-10-10-10-10-10-10-10---------------------------------------|
A|-5-5-5-5-5-5-5-8- 8- 8- 8- 8- 8- 8----------------------------------------|
E|--------------------------------------------------------------------------|
Tap to rate this tab
 
# A B C D E F G H I J K L M N O P Q R S T U V W X Y Z