Song name
# A B C D E F G H I J K L M N O P Q R S T U V W X Y Z

Mc Lars - Hipster Girl tab

-------------------------------------------------------------------------------
			     HIPSTER GIRL - MC Lars
-------------------------------------------------------------------------------
Tabbed by: Bryce White (rockguitar84)
Email: sweet_cuppin_cakes_84@yahoo.com

Tuning: Drop D (D,A,D,G,B,e)

Here's one of MC Lars new songs that is on his myspace at myspace.com/mclars. This is my 
tab, my first was Classico but I didn't receive credit for that one.

  Intro/Chorus (0:22-0:37)
                                      x3
|e|-----------------------------------|---------------------------------------|
|B|-----------------------------------|---------------------------------------|
|G|-----------------------------------|---------------------------------------|
|D|-----------------------------7-----|-5-5-5-4-------------------------------|
|A|-----------------3-3---3-5h6---6-5-|---------6-6-5-6-5-5-3-5-3-3-----------|
|D|-5-5-5-7-8-8-7-8-----8-------------|-----------------------------3---------|
|
|
|e|-----3------3--------6-------6---3-----------------------------------------|
|B|-----3------3--------8-------8---3-----------------------------------------|
|G|-----0------0--------8-------8---0-----------------------------------------|
|D|---------------------------------------------------------------------------|
|A|---------------------------------------------------------------------------|
|D|---------------------------------------------------------------------------|

Verse (0:37-0:53)

|e|---------------------------------------------------------------------------|
|B|---------------------------------------------------------------------------|
|G|---------------------------------------------------------------------------|
|D|-0-0--------------------------0-0------------------------------------------|
|A|-0-0--------------------------0-0------------------------------------------|
|D|-0-0--------------------------0-0------------------------------------------|
|
|e|-----------------------------------------------------10--------------------|
|B|-----------------------10----------------------10h11----10-----------------|
|G|------------------9h10-------------------10h12-----------------------------|
|D|------------10h12----------------------------------------------------------|
|A|---------------------------------------------------------------------------|
|D|---------------------------------------------------------------------------|

|e|---------------------------------------------------------------------------|
|B|-----------------------------------------------------33--------------------|
|G|--------------------------------------------------------00-22--------------|
|D|-0-0--------------------------0-0------------------3----------33--------0-0|
|A|-0-0--------------------------0-0---------------------------------------0-0|
|D|-0-0--------------------------0-0---------------------------------------0-0|
|
|e|----------------------------------------------10---------------------------|
|B|-----------------------13------------------------10------------------------|
|G|------------------9h10------------------------------10---------------------|
|D|------------10h12-----------------------10h12------------------------------|
|A|---------------------------------------------------------------------------|
|D|---------------------------------------------------------------------------|

Electronic/Lyric Break (0:53-1:07)

Hipster Girl Talking (1:07-1:14)

e|---------------------------------------------------------------------------|
B|-3----3--------------------------------------------------------------------|
G|-2------2-0----------------------------------------------------------------|
D|-x----------1--------------------------------------------------------------|
A|-1------------1------------------------------------------------------------|
D|---------------------------------------------------------------------------|

Chorus-Same As Intro (1:14-1:30)

Verse (1:30-1:44)

Electronic/Lyric Break WITH Guitar One Verse (1:44-1:59)

Hipster Girl Talking (1:59-2:10)
e|---------------------------------------------------------------------------|
B|-3----3--------------3-----3-----3-----3-----------------------------------|
G|-2------2-0------------2-0---2-0---2-0---2-0-------------------------------|
D|-x----------1--------------------------------1-----------------------------|
A|-1------------1--------------------------------1---------------------------|
D|---------------------------------------------------------------------------|

Play Chorus (2:10-2:40)

Guitar Solo Over Chorus (2:25-2:40)

e|---------------------------3------6-3--3-6-8-6-3-1-1-----------------------|
B|-------3-----4-3--3-1------3-------------------------4-4-3-3-1-------------|
G|-----------3----------3-0--0----3------------------------------------------|
D|-5-5-5---5--------------------5--------------------------------------------|
A|---------------------------------------------------------------------------|
D|---------------------------------------------------------------------------|


e|---------------------------3------6-3--3-6-8-6-3-1-1-----------------------|
B|-------3-----4-3--3-1------3-------------------------4-4-3-3-1-------------|
G|-----------3----------3-0--0----3------------------------------------------|
D|-5-5-5---5--------------------5--------------------------------------------|
A|---------------------------------------------------------------------------|
D|---------------------------------------------------------------------------|

e|-3-3-3-2-----------------3p2---2-------------------------------------------|
B|---------4-4-3-4-3-3-1-3-----4---4p3---------------------------------------|
G|-------------------------------------3-0-----------------------------------|
D|---------------------------------------------------------------------------|
A|---------------------------------------------------------------------------|
D|---------------------------------------------------------------------------|

Electronic/Lyric Break (2:40-2:56)

Chorus (2:56-3:28)

End/Played While Hipster Girl Talks

|e|---------------------------------------------------------------------------|
|B|---------------------------------------------------------------------------|
|G|---------------------------------------------------------------------------|
|D|-5-------------------------------------------------------------------------|
|A|-5-------------------------------------------------------------------------|
|D|-5-------------------------------------------------------------------------|

| /  slide up
| \  slide down
| h  hammer-on
| p  pull-off
| ~  vibrato
| +  harmonic
| x  Mute note
===============================================================================
Tap to rate this tab
 
# A B C D E F G H I J K L M N O P Q R S T U V W X Y Z