Song name
# A B C D E F G H I J K L M N O P Q R S T U V W X Y Z

Mc Lars - Hurricane Fresh tab

Tuning: EADGBE

This song uses the same riff as "Rock You Like a Hurricane" by the Scorpions.

Intro
e|--------------------|
B|--------------------|
G|--------------------|
D|--2-2-2-------------| x2 
A|----------------3-5-|
E|--------3-3-5-5-----|

The Power Chord Part
e|------------------|
B|------------------|
G|--4-4-4-----------|
D|--2-2-2-------5-7-| x4
A|--------5-7-7-3-5-|
E|--------3-5-5-----|

Verse
e|--------------------|
B|--------------------|
G|--------------------|
D|--2-2-2-------------|
A|----------------3-5-|
E|--------3-3-5-5-----|

Chorus
e|------------------|
B|------------------|
G|--4-4-4-----------|
D|--2-2-2-------5-7-|
A|--------5-7-7-3-5-|
E|--------3-5-5-----|

That's it.
Tap to rate this tab
# A B C D E F G H I J K L M N O P Q R S T U V W X Y Z