Song name
# A B C D E F G H I J K L M N O P Q R S T U V W X Y Z

Mc Mong - I Love You Oh Thank You tab

I Love You Oh Thank You by MC Mong (ft. Kim Taewoo)

Standard Tuning

I've been searching and searching for the tabs to this song and wasn't very 
successful, so I took the initiative to make tabs for this song.
I've only figured out the guitar intro tabs. I'm still working on the tabs for the 
fully instrumented intro, but its not coming along too well... But I do have the 
chords for the intro, the verses, and the chorus.

Solo Guitar Intro:
E |-10-12-|-13--12--10~-|-7-8-10-8~----|------7-8/12-8------|-0-1-------|
B |-------|-------------|------------8-|-8/10-----------8-6-|-----2/3~--|
G |-------|-------------|--------------|--------------------|-----------|
D |-------|-------------|--------------|--------------------|-----------|
A |-------|-------------|--------------|--------------------|-----------|
E |-------|-------------|--------------|--------------------|-----------|

Intro:
C  G  Am     F  C  G     C  G  Am     F  G  Dm  C

Verse1:
C  G  Am     F  C  G     C  G  Am     F  G  Dm  C

Pre-Chorus: (I'm not sure about these chords... but i have some tabs)
    Am     C         F     G      [2X]   C  Am  F  G  [2X]

E |-3-1--0-0-------|-0-----0---|
B |----------1---1-|-----1---3-|
G |----------------|-----------|
D |----------------|-----------|
A |----------------|-----------|
E |----------------|-----------|

Chorus:
C  G  Am     F  C  G     C  G  Am     F  G  Dm  C

Verse2:
C  G  Am     F  C  G     C  G  Am     F  G  Dm  C

Pre-Chorus:
Am  C  F  G  [2X]  C  Am  F  G  [2X]

Chorus:
C  G  Am     F  C  G     C  G  Am     F  G  Dm  C

Chorus (capo1)
Db(C) Ab(G) Bbm(Am)  Gb(F) Db(C) Ab(G)  Db(C) Ab(G) Bbm(Am)  Gb(F) Ab(G)Db(C)

Ending:
E |-9/11-13--9/11-13--9~-|-9-8-9-----9-8-9------9-8-9----------|
B |----------------------|-------11--------9----------7--6-7---|
G |----------------------|-----------------------------------8-|
D |----------------------|-------------------------------------|
A |----------------------|-------------------------------------|
E |----------------------|-------------------------------------|

E |-9/11-13--9/11-13--9/11-9-|-9-8-9-----9-8-9------9-8-9----------------|
B |--------------------------|-------11--------9-----------7-7--4-7--6~~-|
G |--------------------------|-------------------------------------------|
D |--------------------------|-------------------------------------------|
A |--------------------------|-------------------------------------------|
E |--------------------------|-------------------------------------------|

~the end~

http://www.allkpop.com/index.php/full_story/mc_mong_indian_boy_mv_released/

http://www.facebook.com/pages/MC-Mong-MC-mong/16382724027
Tap to rate this tab
# A B C D E F G H I J K L M N O P Q R S T U V W X Y Z