Song name
# A B C D E F G H I J K L M N O P Q R S T U V W X Y Z

Mc Mong - Because Im A Man tab

Tab by mdshin2001
Tuning: Low E string whole step up to F#
	A string half step down to G#


Intro:

E-----6-------4-4-|-6--------------|-----6-------4-4-|-6--9-6--9-8h9p8-5---------|
B-----7-------4-4-|-6--------------|-----7-------4-4-|-6-----------------8-------|
G-----6-------5-5-|-6--------------|-----6-------5-5-|-6-------------------------|
D-----8-------6-6-|-8--------------|-----8-------6-6-|-8-------------------------|
G#----x-------x-x-|-x--------------|-----x-------x-x-|-x-------------------------|
F#--0-x-------x-x-|-x--------------|---0-x-------x-x-|-x-------------------------|

E-----6-------4-4-|-6--------------|-----6-------4-4-|-6-------------------------|
B-----7-------4-4-|-6--------------|-----7-------4-4-|-6-------------------------|
G-----6-------5-5-|-6--------------|-----6-------5-5-|-6-------------------------|
D-----8-------6-6-|-8--------------|-----8-------6-6-|-8-------------------------|
G#----x-------x-x-|-x--------------|-----x-------x-x-|-x-------------------------|
F#--0-x-------x-x-|-x--------------|---0-x-------x-x-|-x-------------------------|

Verse 1 Chorus 1 Verse 2 Chorus 1 Bridge:

E-----6-------4-4-|-6--------------|-----6-------4-4-|-6--9-6--9-8h9p8-5---------|
B-----7-------4-4-|-6--------------|-----7-------4-4-|-6-----------------8-------|
G-----6-------5-5-|-6--------------|-----6-------5-5-|-6-------------------------|
D-----8-------6-6-|-8--------------|-----8-------6-6-|-8-------------------------|
G#----x-------x-x-|-x--------------|-----x-------x-x-|-x-------------------------|
F#--0-x-------x-x-|-x--------------|---0-x-------x-x-|-x-------------------------|

Chorus 2:

E-----8-------6-6-|-8--------------|-----8-------6-6-|-8--11-8--11-10h11p10-8----|
B-----9-------6-6-|-8--------------|-----9-------6-6-|-8----------------------11-|
G-----8-------7-7-|-8--------------|-----8-------7-7-|-8-------------------------|
D-----10------8-8-|-10-------------|-----9-------8-8-|-10------------------------|
G#--0-x-------x-x-|-x--------------|---0-x-------x-x-|-x-------------------------|
F#----x-------x-x-|-x--------------|-----x-------x-x-|-x-------------------------|

Outro:

E-----8-------6-6-|-8--------------|-----8-------6-6-|-8-------------------------|
B-----9-------6-6-|-8--------------|-----9-------6-6-|-8-------------------------|
G-----8-------7-7-|-8--------------|-----8-------7-7-|-8-------------------------|
D-----10------8-8-|-10-------------|-----9-------8-8-|-10------------------------|
G#--0-x-------x-x-|-x--------------|---0-x-------x-x-|-x-------------------------|
F#----x-------x-x-|-x--------------|-----x-------x-x-|-x-------------------------|
Tap to rate this tab
# A B C D E F G H I J K L M N O P Q R S T U V W X Y Z