Song name
# A B C D E F G H I J K L M N O P Q R S T U V W X Y Z

Mc5 - Ramblin Rose tab

Mc5
Ramblin Rose
standard tuning

i have never understood the drop d tuning every one posts for this song.. it sounds 
like it??? this is how i play it.
Please leave feedback as this is my first tabbing of a song... ever =)
mc5 rock!!!!

E-----------------------------------------------------------------|
B-----------------------------------------------------------------|
G-----------------------------------------------------------------|
D---------------------------------------------2-5-------2-5-------|
A------------------------2-5-------2-5--0-3h4-----0-3h4-----------|
E-12-12-12-12-12\--0-3h4-----0-3h4--------------------------------|

E-----------------------------------------------------------------|
B-----------------------------------------------------------------|
G-----------------------------------------------------------------|
D-----------------------2-0-2-0-2-0-2-0-2-0-2-0-------------------|
A--------2-5-------2-5--0-0-0-0-0-0-0-0-0-0-0-0-2-----------------|
E--0-3h4-----0-3h4------------------------------0-----------------|

LOVE IS LIKE A RAMBLIN ROSE!

                         THE MORE YOU FEED IT THE MORE IT GROWS
E--------------------------------------------------------------------|
B--------------------------------------------------------------------|
G------------------------------------1h4-----------------------------|
D--2-0-2-0-2-0-2-0-2-0-2-0-------1h4-----------2-5-------------------|
A--0-0-0-0-0-0-0-0-0-0-0-0-0---2---------0-3h4------0----------------|
E--------------------------2------------------------2----------------|

 OHHHH OHHH OHHHH OHHHHH OHHHHHHHHHHHHHH COME ON!

E-----------------------------------------------------------------|
B-----------------------------------------------------------------|
G-----------------------------------------------------------------|
D-----------------------------------------------------------------|
A--------2-5---------2-5---------2-5---------2-5------------------|
E--0-3h4-----0-3h4--------0-3h4--------0-3h4----------------------|

E----------------------------------------------------------------------|
B----------------------------------------------------------------------|
G----------------------------------------------------------------------|
D--------2-5-------2-5-----------------------2-0-2-0-2-0-2-0-2-0-2-0---|
A--0-3h4-----0-3h4-----------2-5-------2-5---0-0-0-0-0-0-0-0-0-0-0-0-2-|
E----------------------0-3h4-----0-3h4-------------------------------0-|

LOVE IS LIKE A RAMBLIN ROSE!


E---------------------------------------------------------------------------|
B---------------------------------------------------------------------------|
G------------------------------------1h4------------------------------------|
D--2-0-2-0-2-0-2-0-2-0-2-0-------1h4-----------2-5--------------------------|
A--0-0-0-0-0-0-0-0-0-0-0-0-0---2---------0-3h4------------2-5--------2-5----|
E--------------------------2------------------------0-3h4------0-3h4--------|


SOLOS

(Wayne just improvises with the pentatonic E scale i think)
Just mess around with it .. it differs with every version i hear)

REPEAT:)

ENDING

E---------------------------------------------------------------------------|
B---------------------------------------------------------------------------|
G-----------------------------------------------------------14p12---12-1414-|b
D-----------------------------------------12----12-14-12-14-------14--------|
A-----------------------12----12-14-12-14----14-----------------------------|
E--12-10-12-12/14-12-14----14-----------------------------------------------|


THIS IS JUST THE BASIC IDEA>>> I WILL POST SOME DIFFERENT SOLO SUGESTIONS AND STUFF AT A 
DATE:)  BE KIND AND TELL ME WHAT YOU THINK :)
Tap to rate this tab
 
# A B C D E F G H I J K L M N O P Q R S T U V W X Y Z