Song name
# A B C D E F G H I J K L M N O P Q R S T U V W X Y Z

Mc5 - Ramblin Rose tab

----------------------------------------------------------------------------
			     Ramblin' Rose - MC5
----------------------------------------------------------------------------

Tabbed by: GrateTheHouse

Email: frogmangod@hotmail.com

Tuning: Standard

Intro & Main Riff
e|---------------------------------------------------------------------------|
B|---------------------------------------------------------------------------|
G|---------------------------------------------------------------------------|
D|-----------------------------------------------------0-----7--5--0----7--5-|
A|-----0-----7--5--0-----7--5--0-----7--5--0-----7--5--0--4--------0--4------|
E|12\--0--4--------0--4--------0--4--------0--4------------------------------|

e|-------------------------------------------------------------------------|
B|-------------------------------------------------------------------------|
G|-------------------------------------------------------------------------|
D|--------------------------7-7-7-7-7-7-7-7-7-7-7-7-2----------------------|
A|--0-----7--5--0-----7--5--7-7-7-7-7-7-7-7-7-7-7-7-2----------------------|
E|--0--4--------0--4--------5-0-5-0-5-0-5-0-5-0-5-0-0----------------------|

Verse & Chorus

e|-------------------------------------------------------------------------|
B|-------------------------------------------------------------------------|
G|-------------------------------------------------------------------------|
D|--7-7-7-7-7-7-7-7-7-7-7-7-2--------------0-----7--5----------------------|
A|--7-7-7-7-7-7-7-7-7-7-7-7-2--0-----7--5--0--4----------------------------|
E|--5-0-5-0-5-0-5-0-5-0-5-0-0--0--4--------------------0-------------------|

| /  slide up
| \  slide down
| h  hammer-on
| p  pull-off
| ~  vibrato
| +  harmonic
| x  Mute note

============================================================================
Tap to rate this tab
# A B C D E F G H I J K L M N O P Q R S T U V W X Y Z