Guitaretab - guitar tabs
Song name
# A B C D E F G H I J K L M N O P Q R S T U V W X Y Z

Mccartney Paul - Getting Closer tab

Alien Ant Farm
Getting Closer
Up in the Attic(2006 UME Records)

Tuning:Standard               Strum pattern not 100%

Intro/ Verse Gtr1
Gtr2  microphonic feedback in intro
e|-------------------------------------------------------------------------|
B|-------------------------------------------------------------------------|
G|-------------------------------------------------------------------------|
D|-7-7-7-x-7-7-7-7-x-7-4-4-4---4-4-4---------------------------------------|
A|-7-7-7-x-7-7-7-7-x-7-4-4-4---4-4-4-2-2-2---------------------------------|
E|-5-5-5-x-5-4-4-4-x-4-2-2-2-0-2-2-2-0-0-0---------------------------------|

Pre Chorus.."now im older and wiser.."
e|-------------------------------------------------------------------------|
B|-------------------------------------------------------------------------|
G|------7-7-7-7-7-7/-------4-4-4-------------------------------------------|
D|------7-7-7-7-7-7/-9-9-9-4-4-4-------------------------------------------|
A|------5-5-5-4-4-4/-7-7-7-2-2-2-------------------------------------------|
E|-------------------------------------------------------------------------|

Gtr 2
e|-------------------------------------PS\---------------------------------|
B|-------------------------------------------------------------------------|
G|---6---6-9-6-9-9b(11)r9~-8br-8br-8br~------------------------------------|
D|-7---7-------------------------------------------------------------------|
A|-------------------------------------------------------------------------|
E|-------------------------------------------------------------------------|

Chorus.."Its getting closer..."
e|-------------------------------------------------------------------------|
B|-------------------------------------------------------------------------|
G|-9-9-9-9-8-8-8-8-6-6-6-6-5-5-5-------------------------------------------|
D|-9-9-9-9-x-x-x-x-6-6-6-6-4-4-4-------------------------------------------|
A|-7-7-7-7-6-6-6-6-4-4-4-4-3-3-3-------------------------------------------|
E|-------------------------------------------------------------------------|

Verse
[ Tab from: http://www.guitaretab.com/m/mccartney-paul/11454.html ]
Gtr2 Verse...."wear and ugly disguise..."
e|-----------------------------------PS\-----------------------------------|
B|----------------------------2--------------------------------------------|
G|----------------------------4b(6)----------------------------------------|
D|--------7---6---4-4/6-7-9------------------------------------------------|
A|----7-4------------------------------------------------------------------|
E|-5-7---------------------------------------------------------------------|


Pre Chorus Gtr1 same as before
Guitar 2 cont from above note..this is the fast part
e|-14-10---12-10--12-9-----------11--------------12br-12br-12br------------|
B|------10------10----10-------12--12-9--------12--------------------------|
G|---------------------------8---------8-----8-----------------------------|
D|-----------------------9-11------------9-11------------------------------|
A|-------------------------------------------------------------------------|
E|-------------------------------------------------------------------------|

Chorus 

Bridge
e|-------------------------------------------------------------------------|
B|----------------------------/12-13-12-13---------------------------------|
G|--8-----------------8----------------------------------------------------|
D|----10-9-7-6-7-9-10---10-9-7---------------------------------------------|
A|-------------------------------------------------------------------------|
E|-------------------------------------------------------------------------|

"Moving closer...getting closer...."   Goes something like this
e|-------------------------------------------------------------------------|
B|-----------10------------------------------------------------------------|
G|--------------8----------------------------------------------------------|
D|-9-10-9-10------9-10-------------------------------------9---------------|
A|---------------------------------------------------------9---------------|
E|---------------------------------------------------------7---------------|
[-------PM--------------]  Repeat untill end...then end on

| /  slide up
| \  slide down
| x  Mute note
===============================================================================
Related for Getting Closer tab
Advertisement will be closed in 10 seconds