Song name
# A B C D E F G H I J K L M N O P Q R S T U V W X Y Z

Mccartney Paul - Let Me Roll It tab

-------------------------------------------------------------------------------
			    Paul McCartney and Wings - Let Me Roll It
-------------------------------------------------------------------------------
Tabbed by:Omar Alvarado
Tuning: standard(EADGBe)

THERE ARE TWO GUITARS( RHYTHM AND LEAD) IN THIS SONG. THE LEAD PLAYS THE MAIN RIFF OVER 
RHYTHM GUITAR, WHICH ALTERNATES BETWEEN AN "F#m"(244222) and an "E" chord(022100).

the beginning chords are :


     INTRO :

          (A - D) 2x      (E  -  A) 4x       E


    VERSE 1 :

e|--2h3p2---2--0-----------------------2h3p2---2--0----------------------------|
B|--2h3p2---2--0-- 2--0----------------2h3p2---2--0----------------------------|
G|-----------------2--0-------------------------------2--0---------------------|
D|----------------------------------------------------2--0---------------------|
A|-----------------------------------------------------------------------------|
E|-----------------------------------------------------------------------------|
  |                                                                                      
                                                  |
e|-----------------------------2--------2-------------------------0----------|
B|-----------------------------2--------2-------------------------0----------|
G|-----------------------------2--------2-------------------------1----------|
D|-----------------------------4--------4-------------------------2----------|
A|-----------------------------4--------4-------------------------2----------|
E|-----------------------0-2---2----2---2----------------------0--0----------|

e|-----2h3p2---2--0-----------------------------2h3p2---2--0-----------------------|
B|-----2h3p2---2--0-- 2--0----------------------2h3p2---2--0-----------------------|
G|--------------------2--0------------------------------------2--0-----------------|
D|------------------------------------------------------------2--0-----------------|
A|---------------------------------------------------------------------------------|
E|---------------------------------------------------------------------------------|
  |                                                                                      
                                                        |
e|----0---------------------------2--------------2----------------------0-------|
B|----0---------------------------2--------------2----------------------0-------|
G|----1---------------------------2--------------2----------------------1-------|
D|----2---------------------------4--------------4----------------------2-------|
A|----2---------------------------4--------------4----------------------2-------|
E|-0--0----------------------2----2-------2------2-------------------0--0-------|

                                                                                         
                     LYRICS :        YOU GAVE

e|-----2h3p2---2--0-----------------------------2h3p2---2--0-----------------------|
B|-----2h3p2---2--0-- 2--0----------------------2h3p2---2--0-----------------------|
G|--------------------2--0------------------------------------2--0-----------------|
D|------------------------------------------------------------2--0-----------------|
A|---------------------------------------------------------------------------------|
E|---------------------------------------------------------------------------------|
  |                                                                                      
                                                        |
e|----0---------------------------2----------2--------------------------0-------|
B|----0---------------------------2----------2--------------------------0-------|
G|----1---------------------------2----------2--------------------------1-------|
D|----2---------------------------4----------4--------------------------2-------|
A|----2---------------------------4----------4--------------------------2-------|
E|-0--0-----------------------2---2-------2--2-----------------------0--0-------|

 ME SOMETHING                                              I UNDERSTAND                  
                      YOU GAVE

e|-----2h3p2---2--0-----------------------------2h3p2---2--0-----------------------|
B|-----2h3p2---2--0-- 2--0----------------------2h3p2---2--0-----------------------|
G|--------------------2--0------------------------------------2--0-----------------|
D|------------------------------------------------------------2--0-----------------|
A|---------------------------------------------------------------------------------|
E|---------------------------------------------------------------------------------|
  |                                                                                      
                                                        |
e|----0---------------------------2----------2----------------------------------|
B|----0---------------------------2----------2----------------------------------|
G|----1---------------------------2----------2----------------------------------|
D|----2---------------------------4----------4----------------------------------|
A|----2---------------------------4----------4----------------------------------|
E|-0--0-----------------------2---2-------2--2----------------------------------|

ME LOVING IN THE   PALM  OF  MY  HAND !!!

CHORUS :


A          D                        A
I CANT TELL YOU  HOW I FEEL


      D                       E
MY HEART IS LIKE A WHEEL


            A                     E           A                     E
LET ME ROLL IT            LET ME ROLL IT TO YOU


             A                    E           A                     E
LET ME ROLL IT            LET ME ROLL IT TO YOU


      VERSE 2 :

e|--2h3p2---2--0-----------------------2h3p2---2--0----------------------------|
B|--2h3p2---2--0-- 2--0----------------2h3p2---2--0----------------------------|
G|-----------------2--0-------------------------------2--0---------------------|
D|----------------------------------------------------2--0---------------------|
A|-----------------------------------------------------------------------------|
E|-----------------------------------------------------------------------------|
  |                                                                                      
                                                  |
e|-----------------------------2--------2-------------------------0----------|
B|-----------------------------2--------2-------------------------0----------|
G|-----------------------------2--------2-------------------------1----------|
D|-----------------------------4--------4-------------------------2----------|
A|-----------------------------4--------4-------------------------2----------|
E|-----------------------0-2---2----2---2----------------------0--0----------|

e|-----2h3p2---2--0-----------------------------2h3p2---2--0-----------------------|
B|-----2h3p2---2--0-- 2--0----------------------2h3p2---2--0-----------------------|
G|--------------------2--0------------------------------------2--0-----------------|
D|------------------------------------------------------------2--0-----------------|
A|---------------------------------------------------------------------------------|
E|---------------------------------------------------------------------------------|
  |                                                                                      
                                                        |
e|----0---------------------------2--------------2----------------------0-------|
B|----0---------------------------2--------------2----------------------0-------|
G|----1---------------------------2--------------2----------------------1-------|
D|----2---------------------------4--------------4----------------------2-------|
A|----2---------------------------4--------------4----------------------2-------|
E|-0--0----------------------2----2-------2------2-------------------0--0-------|

                                                                                         
                                            I WANT

e|-----2h3p2---2--0-----------------------------2h3p2---2--0-----------------------|
B|-----2h3p2---2--0-- 2--0----------------------2h3p2---2--0-----------------------|
G|--------------------2--0------------------------------------2--0-----------------|
D|------------------------------------------------------------2--0-----------------|
A|---------------------------------------------------------------------------------|
E|---------------------------------------------------------------------------------|
  |                                                                                      
                                                        |
e|----0---------------------------2----------2--------------------------0-------|
B|----0---------------------------2----------2--------------------------0-------|
G|----1---------------------------2----------2--------------------------1-------|
D|----2---------------------------4----------4--------------------------2-------|
A|----2---------------------------4----------4--------------------------2-------|
E|-0--0-----------------------2---2-------2--2-----------------------0--0-------|

   TO TELL YOU                                    AND NOW'S THE TIME                     
               I WANT

e|-----2h3p2---2--0-----------------------------2h3p2---2--0-----------------------|
B|-----2h3p2---2--0-- 2--0----------------------2h3p2---2--0-----------------------|
G|--------------------2--0------------------------------------2--0-----------------|
D|------------------------------------------------------------2--0-----------------|
A|---------------------------------------------------------------------------------|
E|---------------------------------------------------------------------------------|
  |                                                                                      
                                                        |
e|----0---------------------------2----------2----------------------------------|
B|----0---------------------------2----------2----------------------------------|
G|----1---------------------------2----------2----------------------------------|
D|----2---------------------------4----------4----------------------------------|
A|----2---------------------------4----------4----------------------------------|
E|-0--0-----------------------2---2-------2--2----------------------------------|

  TO TELL YOU YHAT YOU'RE GONNA  BE  MINE!!!

CHORUS :


A          D                        A
I CANT TELL YOU  HOW I FEEL


      D                       E
MY HEART IS LIKE A WHEEL


            A                     E           A                     E
LET ME ROLL IT            LET ME ROLL IT TO YOU


             A                    E           A                     E
LET ME ROLL IT            LET ME ROLL IT TO YOU


      VERSE 3 :  NO LYRICS


e|--2h3p2---2--0-----------------------2h3p2---2--0----------------------------|
B|--2h3p2---2--0-- 2--0----------------2h3p2---2--0----------------------------|
G|-----------------2--0-------------------------------2--0---------------------|
D|----------------------------------------------------2--0---------------------|
A|-----------------------------------------------------------------------------|
E|-----------------------------------------------------------------------------|
  |                                                                                      
                                                  |
e|-----------------------------2--------2-------------------------0----------|
B|-----------------------------2--------2-------------------------0----------|
G|-----------------------------2--------2-------------------------1----------|
D|-----------------------------4--------4-------------------------2----------|
A|-----------------------------4--------4-------------------------2----------|
E|-----------------------0-2---2----2---2----------------------0--0----------|

e|-----2h3p2---2--0-----------------------------2h3p2---2--0-----------------------|
B|-----2h3p2---2--0-- 2--0----------------------2h3p2---2--0-----------------------|
G|--------------------2--0------------------------------------2--0-----------------|
D|------------------------------------------------------------2--0-----------------|
A|---------------------------------------------------------------------------------|
E|---------------------------------------------------------------------------------|
  |                                                                                      
                                                        |
e|----0---------------------------2--------------2----------------------0-------|
B|----0---------------------------2--------------2----------------------0-------|
G|----1---------------------------2--------------2----------------------1-------|
D|----2---------------------------4--------------4----------------------2-------|
A|----2---------------------------4--------------4----------------------2-------|
E|-0--0----------------------2----2-------2------2-------------------0--0-------|


e|-----2h3p2---2--0-----------------------------2h3p2---2--0-----------------------|
B|-----2h3p2---2--0-- 2--0----------------------2h3p2---2--0-----------------------|
G|--------------------2--0------------------------------------2--0-----------------|
D|------------------------------------------------------------2--0-----------------|
A|---------------------------------------------------------------------------------|
E|---------------------------------------------------------------------------------|
  |                                                                                      
                                                        |
e|----0---------------------------2----------2--------------------------0-------|
B|----0---------------------------2----------2--------------------------0-------|
G|----1---------------------------2----------2--------------------------1-------|
D|----2---------------------------4----------4--------------------------2-------|
A|----2---------------------------4----------4--------------------------2-------|
E|-0--0-----------------------2---2-------2--2-----------------------0--0-------|


e|-----2h3p2---2--0-----------------------------2h3p2---2--0-----------------------|
B|-----2h3p2---2--0-- 2--0----------------------2h3p2---2--0-----------------------|
G|--------------------2--0------------------------------------2--0-----------------|
D|------------------------------------------------------------2--0-----------------|
A|---------------------------------------------------------------------------------|
E|---------------------------------------------------------------------------------|
  |                                                                                      
                                                        |
e|----0---------------------------2----------2----------------------------------|
B|----0---------------------------2----------2----------------------------------|
G|----1---------------------------2----------2----------------------------------|
D|----2---------------------------4----------4----------------------------------|
A|----2---------------------------4----------4----------------------------------|
E|-0--0-----------------------2---2-------2--2----------------------------------|


CHORUS :


A          D                        A
I CANT TELL YOU  HOW I FEEL


      D                       E
MY HEART IS LIKE A WHEEL


            A                     E           A                     E
LET ME ROLL IT            LET ME ROLL IT TO YOU


             A                    E           A                     E
LET ME ROLL IT            LET ME ROLL IT TO YOU


VERSE 4 :      (SAME AS VERSE ONE)


e|--2h3p2---2--0-----------------------2h3p2---2--0----------------------------|
B|--2h3p2---2--0-- 2--0----------------2h3p2---2--0----------------------------|
G|-----------------2--0-------------------------------2--0---------------------|
D|----------------------------------------------------2--0---------------------|
A|-----------------------------------------------------------------------------|
E|-----------------------------------------------------------------------------|
  |                                                                                      
                                                  |
e|-----------------------------2--------2-------------------------0----------|
B|-----------------------------2--------2-------------------------0----------|
G|-----------------------------2--------2-------------------------1----------|
D|-----------------------------4--------4-------------------------2----------|
A|-----------------------------4--------4-------------------------2----------|
E|-----------------------0-2---2----2---2----------------------0--0----------|

e|-----2h3p2---2--0-----------------------------2h3p2---2--0-----------------------|
B|-----2h3p2---2--0-- 2--0----------------------2h3p2---2--0-----------------------|
G|--------------------2--0------------------------------------2--0-----------------|
D|------------------------------------------------------------2--0-----------------|
A|---------------------------------------------------------------------------------|
E|---------------------------------------------------------------------------------|
  |                                                                                      
                                                        |
e|----0---------------------------2--------------2----------------------0-------|
B|----0---------------------------2--------------2----------------------0-------|
G|----1---------------------------2--------------2----------------------1-------|
D|----2---------------------------4--------------4----------------------2-------|
A|----2---------------------------4--------------4----------------------2-------|
E|-0--0----------------------2----2-------2------2-------------------0--0-------|

                                                                                         
                                         YOU GAVE

e|-----2h3p2---2--0-----------------------------2h3p2---2--0-----------------------|
B|-----2h3p2---2--0-- 2--0----------------------2h3p2---2--0-----------------------|
G|--------------------2--0------------------------------------2--0-----------------|
D|------------------------------------------------------------2--0-----------------|
A|---------------------------------------------------------------------------------|
E|---------------------------------------------------------------------------------|
  |                                                                                      
                                                        |
e|----0---------------------------2----------2--------------------------0-------|
B|----0---------------------------2----------2--------------------------0-------|
G|----1---------------------------2----------2--------------------------1-------|
D|----2---------------------------4----------4--------------------------2-------|
A|----2---------------------------4----------4--------------------------2-------|
E|-0--0-----------------------2---2-------2--2-----------------------0--0-------|

 ME SOMETHING                                              I UNDERSTAND                  
                      YOU GAVE

e|-----2h3p2---2--0-----------------------------2h3p2---2--0-----------------------|
B|-----2h3p2---2--0-- 2--0----------------------2h3p2---2--0-----------------------|
G|--------------------2--0------------------------------------2--0-----------------|
D|------------------------------------------------------------2--0-----------------|
A|---------------------------------------------------------------------------------|
E|---------------------------------------------------------------------------------|
  |                                                                                      
                                                        |
e|----0---------------------------2----------2----------------------------------|
B|----0---------------------------2----------2----------------------------------|
G|----1---------------------------2----------2----------------------------------|
D|----2---------------------------4----------4----------------------------------|
A|----2---------------------------4----------4----------------------------------|
E|-0--0-----------------------2---2-------2--2----------------------------------|

ME LOVING IN THE   PALM  OF  MY  HAND !!!


CHORUS :


A          D                        A
I CANT TELL YOU  HOW I FEEL


      D                       E
MY HEART IS LIKE A WHEEL


            A                     E           A                     E
LET ME ROLL IT            LET ME ROLL IT TO YOU


             A                    E           A                     E
LET ME ROLL IT            LET ME ROLL IT TO YOU

  END WITH :


e|--2h3p2---2--0-----------------------2h3p2---2--0----------------------------|
B|--2h3p2---2--0-- 2--0----------------2h3p2---2--0----------------------------|
G|-----------------2--0-------------------------------2--0---------------------|
D|----------------------------------------------------2--0---------------------|
A|-----------------------------------------------------------------------------|
E|-----------------------------------------------------------------------------|
  |                                                                                      
                                                  |
e|-----------------------------2--------2-------------------------0----------|
B|-----------------------------2--------2-------------------------0----------|
G|-----------------------------2--------2-------------------------1----------|
D|-----------------------------4--------4-------------------------2----------|
A|-----------------------------4--------4-------------------------2----------|
E|-----------------------0-2---2----2---2----------------------0--0----------|

e|-----2h3p2---2--0-----------------------------2h3p2---2--0-----------------------|
B|-----2h3p2---2--0-- 2--0----------------------2h3p2---2--0-----------------------|
G|--------------------2--0------------------------------------2--0-----------------|
D|------------------------------------------------------------2--0-----------------|
A|---------------------------------------------------------------------------------|
E|---------------------------------------------------------------------------------|
  |                                                                                      
                                                        |
e|----0---------------------------2--------------2----------------------0-------|
B|----0---------------------------2--------------2----------------------0-------|
G|----1---------------------------2--------------2----------------------1-------|
D|----2---------------------------4--------------4----------------------2-------|
A|----2---------------------------4--------------4----------------------2-------|
E|-0--0----------------------2----2-------2------2-------------------0--0-------|


e|-----2h3p2---2--0-----------------------------2h3p2---2--0-----------------------|
B|-----2h3p2---2--0-- 2--0----------------------2h3p2---2--0-----------------------|
G|--------------------2--0------------------------------------2--0-----------------|
D|------------------------------------------------------------2--0-----------------|
A|---------------------------------------------------------------------------------|
E|---------------------------------------------------------------------------------|
  |                                                                                      
                                                        |
e|----0---------------------------2----------2----------------------------------|
B|----0---------------------------2----------2----------------------------------|
G|----1---------------------------2----------2----------------------------------|
D|----2---------------------------4----------4----------------------------------|
A|----2---------------------------4----------4----------------------------------|
E|-0--0-----------------------2---2-------2--2----------------------------------|
                                                                                         
                               ...FADE...

                                               ENJOY!!
                                               IF YOU HAVE ANY QUESTIONS OR COMMENTS ...
                                               ... YOU CAN FIND SOMEBODY ELSE TO BOTHER!!!

| /  slide up
| \  slide down
| h  hammer-on
| p  pull-off
| ~  vibrato
| +  harmonic
| x  Mute note
=============================================================
Tap to rate this tab
 
# A B C D E F G H I J K L M N O P Q R S T U V W X Y Z