Song name
# A B C D E F G H I J K L M N O P Q R S T U V W X Y Z

Mccartney Paul - Mull Of Kintyre tab

         A           A           A           A           A           A
e|-----0---0-------0---0-------0---0-------0---0-------0---0-------0---0---|
B|-----3---3-------3---3-------3---3-------3---3-------3---3-------3---3---|
G|-----3---3-------3---3-------3---3-------3---3-------3---3-------3---3---|
D|-----3---3-------3---3-------3---3-------3---3-------3---3-------3---3---|
A|-0---0---0---0---0---0---0---0---0---0---0---0---0---0---0---0---0---0---|
E|-------------------------------------------------------------------------|
       ^   ^       ^   ^       ^   ^       ^   ^       ^   ^       ^   ^
The Whole song is played on this basis, before every chord a base note is played. So for 
the next part (D) you would play...

e|-----2---2-------2---2-----------------------------------------------------|
B|-----3---3-------3---3-----------------------------------------------------|
G|-----2---2-------2---2-----------------------------------------------------|
D|-0---0---0---0---0---0-----------------------------------------------------|
A|---------------------------------------------------------------------------|
E|---------------------------------------------------------------------------|
       ^   ^       ^   ^
The key is to listen as to how many times the chord is played, at the start there is a 
beat count in then two A chords then 2 D's nd so on.

 A                  D                        A
Mull of Kintyre,oh mist rolling in from the sea
             D                       A
my desire is always to be here , oh Mull of Kintyre.


1st Chorus:

 A
Far have I travelled and much have I seen
  D                      A
dark distant mountains with valleys of green.

Past painted deserts the sun sets on fire
       D                      A
as he carries me home to the Mull of Kintyre.


Refrain:

 A                  D                        A
Mull of Kintyre,oh mist rolling in from the sea
             D                       A
my desire is always to be here , oh Mull of Kintyre.

2nd Chorus:

 D                                          D7
Sweep trought the heather like deer in the glen
 G                     D
carry me back to the days I knew then.
                                   Break
Nights when we sang like a heavenly choir
        G                         A7         D
of the life and the times of the Mull of Kintyre.


Refrain:

 D                  G                        D
Mull of Kintyre,oh mist rolling in from the sea
             G                       A7         D
my desire is always to be here , oh Mull of Kintyre.


3rd Chorus:
  A
Smiles in the sunshine and tears in the rain
  D                            A
still takes me back where my  memīries remain.

Figurind amber grow higher then high
         D                    E         A
as they carry me back to the Mull of Kintyre.


Refrain:

 A                  D                        A
Mull of Kintyre,oh mist rolling in from the sea
             D                       A
my desire is always to be here , oh Mull of Kintyre.

Refrain:

 D                  G                        D
Mull of Kintyre,oh mist rolling in from the sea
             G                       A7         D
my desire is always to be here , oh Mull of Kintyre

This is my first tab so any comments would be appreciated, thanks.

e-mail Apocalypse-Now@hotmail.co.uk
Tap to rate this tab
# A B C D E F G H I J K L M N O P Q R S T U V W X Y Z