Song name
# A B C D E F G H I J K L M N O P Q R S T U V W X Y Z

Mcd - Entre Borrachos tab

ENTRE BORRACHOS (MCD)


{ACORDES DE LA INTRO}

e |-x-|-x-|-x-|-x-|-x-|-x-|-x-|-x-|
B |-x-|-x-|-x-|-x-|-x-|10-|-2-|-x-|
G |-7-|-5-|-4-|-3-|-7-|-9-|-0-|-7-|
D |-7-|-7-|-5-|-5-|-5-|-7-|-2-|-7-|
A |-5-|-5-|-5-|-5-|-5-|-0-|-0-|-5-|
E |-x-|-x-|-x-|-x-|-x-|-x-|-x-|-x-|



e |-x-------------|-x-----------|-x-----------|-x------------|
B |-x-------------|-x-----------|-x-----------|-x------------|
G |-7-------------|-7-----------|-7-----------|-4------------|
D |-7-------------|-7-----------|-7-----------|-4------------|
A |-5-------------|-4-----------|-3-----------|-2------------|
E |-x-------------|-x-----------|-x-----------|-x------------|

Por fin llego el final de la función por esta noche


e |-x------|-x-----------|-x---------|-x------------|
B |-x------|-x-----------|10---------|-x------------|
G |-9------|-9-----------|-9---------|-7------------|
D |-9------|-9-----------|-7---------|-7------------|
A |-7------|-6-----------|-0---------|-5------------|
E |-x------|-x-----------|-x---------|-x------------|

es otro día más que va sellando tu destino


e |-x-----------|-x---------|-x-------|-x------------|
B |-x-----------|-x---------|-x-------|-x------------|
G |-7-----------|-5---------|-4-------|-3------------|
D |-7-----------|-7---------|-5-------|-5------------|
A |-5-----------|-5---------|-5-------|-5------------|
E |-x-----------|-x---------|-x-------|-x------------|

que bien poder estar, poder beber acompañado


e |-x-------|-x----------|-x-|-x---|
B |-x-------|10----------|-2-|-x---|
G |-7-------|-9----------|-0-|-7---|
D |-7-------|-7----------|-2-|-7---|
A |-5-------|-0----------|-0-|-5---|
E |-x-------|-x----------|-x-|-x---|

aquí en el local entre borrachos



{COMIENZA LA KAÑA}

D/ / / /

     D                                         B
Por fin llego el final de la función por esta noche
   E                       A           D   
es otro día más que va sellando tu destino
     D            D7           G        Gm 
que bien poder estar, poder beber acompañado
   D          A            D
aquí en el local entre borrachos.
   D                         G                 
Observa al caminar toda esa gente que hay tu lado
      D D# E                A         E   F  F#          B  
Si alguna vez te lo has pensado cuando has estado desamparado
    D  D#   E        A            D
sabrás por qué acabarás entre borrachos.

Tirado en el sofá los pensamientos desatados
Volver atrás no puede ser después de lo que has caminado
Irás a las taquillas en las carreras de caballos
o aquí en el local entre borrachos. 
Observa al caminar toda esa gente que hay tu lado
Si alguna vez te lo has pensado cuando has estado desamparado
sabrás por qué acabarás entre borrachos.


{FINAL}


e |-----------------|-----------------|-----------------|-----------------|
B |-----------------|-----------------|-----------------|-----------------|
G |-7-7-6-7-7-7-6-7-|-7-7-6-7-7-7-6-7-|-7-7-6-7-7-7-6-7-|-7-7-6-7-7-7-6-7-|
D |-0-0-0-0-0-0-0-0-|-0-0-0-0-0-0-0-0-|-0-0-0-0-0-0-0-0-|-0-0-0-0-0-0-0-0-|
A |-----------------|-----------------|-----------------|-----------------|
E |-----------------|-----------------|-----------------|-----------------|


e |-----------------|-----------------|-----------------|-----------------|
B |-----------------|-----------------|-----------------|-----------------|
G |-----------------|-----------------|-----------------|-----------------|
D |-----------------|-----------------|-----------------|-----------------|
A |-5---------2-3-4-|-5---------2-3-4-|-5---------2-3-4-|-5---------2-3-4-|
E |---2-3-4-5-------|---2-3-4-5-------|---2-3-4-5-------|---2-3-4-5-------|

D/ / / /DESKONTROL Y FIN...

-------------------------------------------------------------------------------

Visita nuestra página http://www.imbecil.com o escríbenos a info@imbecil.com.
Tap to rate this tab
# A B C D E F G H I J K L M N O P Q R S T U V W X Y Z