Song name
# A B C D E F G H I J K L M N O P Q R S T U V W X Y Z

Mcdonald And Giles - Turnham Green chords

Highlighted       Show chord diagrams
Riff 1:             Riff 2:
---------------     -----------5--4--3---|
--5--3--1--0---     --5--4--3------------|
---------------     ---------------------|
--5--3--2--0---     ---------------------|
---------------     ---------------------|
---------------     ---------------------|

Riff 3:
  F/C             Am/C            [ch]F7/C[/ch]
----------1---------------0---------------1---------------1--------|
--------1---1-----------1---1-----------1---1-----------1---1------|
------2-------2-------2-------2-------2-------2-------2-------2----|
----3-----------3---2-----------2---1-----------1---1-----------1--|
--3---------------3---------------3---------------3----------------|
-------------------------------------------------------------------|

  A               Amaj7           A7
----------0---------------0---------------0---------------0--------|
--------2---2-----------2---2-----------2---2-----------2---2------|
------2-------2-------1-------1-------0-------0-------0-------0----|
----2-----------2---2-----------2---2-----------2---2-----------2--|
--0---------------0---------------0---------------0----------------|
-------------------------------------------------------------------|

G7                  C              G7            C
  The sun shone, in Turnham Green,   I walked, into a dream
A7                       D              G7            
C              Riff 1
  What happened, to that face I'd seen?   Some pussy, on her knees?

G7               C            G7               C
  She smiled, at me and then,   with the sun, away she went,
A7                D              G7                 
C           Riff 2
  I knew I had to see her again,  that girl, on the diam train.

  Fmaj7           [ch]F7/Eb[/ch]           A
----------0---------------1---------------0---------|
------1-----1---1-----1-----1---1-------2---2-------|
----2---2-----2-----2---2-----2-------2-------2-----|
--3---------------1-----------------2-----------2---|
----------------------------------0-----------------|
----------------------------------------------------|

  Amaj7           A7
----------0---------------0---------------0---------|
--------2---2-----------2---2-----------2---2-------|
------1-------1-------0-------0-------0-------0-----|
----2-----------2---2-----------2---2-----------2---|
--0---------------0---------------0-----------------|
----------------------------------------------------|

        Flute solo, Piano solo ["Turnham Green"]  (Dm7)

G7           C             G7               C
  I sped, my way upstream,   she played, my tambourine,
A7                   D               G7                   
C           Riff 1
  Severn Mansions, I wrote the theme,  placed an ad, in a magazine.

G7                  C           G7            C
  We walked, to the surfin' sea,   shared the Sunday, evergreen,
A7            D          G7             C            
 Riff 2     Riff 3
  She was, my ballerine,    a woman, of seventeen.

        Instrumental part: Dm/Dm7

        ["Here I Am"]

Dm                            Cm                        Bb    
     Eb
You want someone to make your life, happy, while here I am, here I am;
Dm                         Cm                        Bb       
   Eb
You are the one to make my life, happy, and here are you, here I am.

  G7          C
-------------------------------|
-------------------------------|
-------------------------------|
----------0h2------------------|
----0h1h2-----3-3p2p1p0--------|
--3---------------------0h1h2--|

G7                  C              G7            C
  The sun shone, in Turnham Green,   I walked, into a dream
A7                       D              G7            
C              Riff 1
  What happened, to that face I'd seen?   Some pussy, on her knees?
G7             C           G7                        C
  One sugar is all I need,   you are my sugar 'n' my cup of tea,
A7                          D           G7                    
    C
  'N' you can give all your love to me,   now we're something and don't we see?
Tap to rate this tab
# A B C D E F G H I J K L M N O P Q R S T U V W X Y Z