Song name
# A B C D E F G H I J K L M N O P Q R S T U V W X Y Z

Mcentire Reba - Fear Of Being Alone tab

Help us improve GuitareTab! Take a short survey!
eb(-----------------------------------)
bb(-----------------------------------)
gb(------------------------------5555-)
db(--233232-xx232320-233232-xx2325555-)
ab(--233232-xx232320-233232-xx2323333-)
Db(--233232-xx232320-233232-xx232-----)
   pm......   ......

eb(----------------------------------)
bb(----------------------------------)
gb(----------------------------------)
db(--233232-xx232320-233232-xx232320-)
ab(--233232-xx232320-233232-xx232320-)
Db(--233232-xx232320-233232-xx232320-)

  
eb(-----------------------------------)
bb(-----------------------------------)
gb(------------------------------5555-)
db(--233232-xx232320-233232-xx2325555-)
ab(--233232-xx232320-233232-xx2323333-)
Db(--233232-xx232320-233232-xx232-----)

eb(-----------------------------------)
bb(-----------------------------------)
gb(-----------------------------------)
db(--4444-76-4444-76-4444-76-4444-222-)
ab(--4444----4444----4444----4444-222-)
Db(--4444----4444----4444----4444-222-)

verse
eb(-----------------------------------)
bb(-----------------------------------)
gb(-----------------------------------)
db(--4444-76-4444-76-4444-76-44442222-)
ab(--4444----4444----4444----44442222-)
Db(--4444----4444----4444----44442222-)
   pm.... .. .... .. .... .. ........

verse continued
eb(-----------------------------------)
bb(-----------------------------------)
gb(-----------------------------------)
db(--0000-76-0000-76-0000-76-00002222-)
ab(--0000----0000----0000----00002222-)
Db(--0000----0000----0000----00002222-)
   pm.... .. .... .. .... .. ........

verse continued
eb(-----------------------------------)
bb(-----------------------------------)
gb(-----------------------------------)
db(--4444-76-4444-76-4444-76-44442222-)
ab(--4444----4444----4444----44442222-)
Db(--4444----4444----4444----44442222-)
   pm.... .. .... .. .... .. ........

verse continued
eb(------------------------------------)
bb(------------------------------------)
gb(------------------------------------)
db(--0000-76-0000-76-0000-76-000066667-)
ab(--0000----0000----0000----000066667-)
Db(--0000----0000----0000----000066667-)
   pm.... .. .... .. .... .. 

pre-chorus
eb(---------------------)
bb(---------------------)
gb(------10------10-----)
db(--7---10--7---10--02-)
ab(--7---8---7---8---02-)
Db(--7-------7-------02-)

chorus x2
eb(---------------------------------------------------------------)
bb(---------------------------------------------------------------)
gb(----------------------------------7777----7777----7777---------)
db(--4444-4444-4444-4444-44442222-00-7777-00-7777-00-7777-00-2222-)
ab(--4444------4444------44442222-00-5555-00-5555-00-5555-00-2222-)
Db(--4444------4444------44442222-00------00------00------00-2222-)

post chorus(this is only after the second and last chorus)
eb(---------------)
bb(---------------)
gb(---------------)
db(--2-2223-7-6-4-)
ab(--2-2223-7-6-4-)
Db(--2-2223-7-6-4-)

bridge x4
eb(----------------------------------)
bb(----------------------------------)
gb(----------------------------------)
db(--233232-xx232320-233232-xx232320-)
ab(--233232-xx232320-233232-xx232320-)
Db(--233232-xx232320-233232-xx232320-)

bridge 2  x4
eb(---------)
bb(---------)
gb(---------)
db(--2----4-)
ab(--2----4-)
Db(--2----4-)

bridge 2 (lead)  x2
eb(--------14----------14----------14----------13-------------)
bb(-----14----14----14----14----14----14----14----14----------)
gb(--11----------11----------11----------11-------------------)
db(-----------------------------------------------------------)
ab(--------------------------------------------------99999999-)
Db(-----------------------------------------------------------)

Related for Fear Of Being Alone tab