Song name
# A B C D E F G H I J K L M N O P Q R S T U V W X Y Z

Mcfly - Five Colours In Her Hair tab

                                   McFly - Five Colours in Her Hair

This is my first tab so comments are welcome. If there any corrections please submit 
Thank you :)

Standard Tuning - EADGBe

Intro

o-----------------------------------------------------------------------|
------------------------------------------------------------------------|
------------------------------------------------------------------------|
-----------------0-3-4-5-5-3-5-3---------0-3-4-5-5-3-5-3----------------|
------0-1-2-3-1-3---------------5-4-3-1-3---------------5-4-3-1-3-1-3---|
o-3-1-3-----------------------------------------------------------------|

-----------------o]-----------------------------------------------------|
----1st time------]-----2nd time----------------------------------------|
------------------]-7777777777777777------------------------------------|
------------------]-7777777777777777------------------------------------|
-5555555555555555-]-5555555555555555------------------------------------|
-----------------o]-----------------------------------------------------|

Verse 1 - if you listen to song, you can find out timing and rhythm

------------------------------------------------------------------------|
------------------------------------------------------------------------|
--------------------------77777-------------------7777777777------------|
-5--33333-55555--5--33333-77777-55555-33333-33333-7777777777------------|
-5--33333-55555--5--33333-55555-55555-33333-55555-5555555555------------|
-3--11111-33333--3--11111-------33333-11111-33333-----------------------|

Chorus

------------------------------------------------------------------------|
------------------------------------------------------------------------|
-------44444-77777-77777-------44444-77777-77777--55555-77777-----------|
-55555-44444-77777-77777-55555-44444-77777-77777--55555-77777-----------|
-55555-22222-55555-55555-55555-22222-55555-55555--33333-55555-----------|
-33333-------------------33333------------------------------------------|

-00000-00000------------------------------------------------------------|
-00000-11111------------------------------------------------------------|
-00000-22222-55555-77777------------------------------------------------|
-22222-22222-55555-77777-55555-55555------------------------------------|
-22222-00000-33333-55555-55555-55555------------------------------------|
-00000-------------------33333-33333------------------------------------|

Verse 2

------------------------------------------------------------------------|
------------------------------------------------------------------------|
--------------------------77777-------------------5555555555-7777777777-|
-5--33333-55555--5--33333-77777-55555-33333-33333-5555555555-7777777777-|
-5--33333-55555--5--33333-55555-55555-33333-55555-3333333333-5555555555-|
-3--11111-33333--3--11111-------33333-11111-33333-----------------------|

Chorus

Bridge- workout strumming and timing

-0---0-------0-----------------------------------0----------------------|
-0---1-------3-----------------------------------0----------------------|
-0---2-------2-------7----------5--7-----5---7---0------7--5---5--------|
-2---2---3---0---5---7---5---5--5--7--5--5---7---2---5--7--5---5---5----|
-2---0---3-------5---5---5---5--3--5--5--3---5---2---5--5--3---3---5----|
-0-------1-------3-------3---3--------3----------0---3-------------3----|

Solo (1st part of Intro)

Chorus

Outro (Intro)

Again this is my first tab so comments and correction are appreciated. Enjoy :)
Tap to rate this tab
 
# A B C D E F G H I J K L M N O P Q R S T U V W X Y Z