Song name
# A B C D E F G H I J K L M N O P Q R S T U V W X Y Z

Mcfly - Down Goes Another One tab

Help us improve GuitareTab! Take a short survey!
McFly
Down Goes Another One
Radio:ACTIVE Deluxe Edition
Tuning: Standart

        Am
Did the best 
       C
That I could 
         G
Said I'd die for you 
      D
and I would 
         Am
But I've drowned 
          C                 G   D
All those feelings in the flood 

        Am
Need to know 
          C
If you're there 
           G                D
If you're listening to my prayers
      Am
To my tears 
           C                     G   D
Feel like raindrops through the mud 

        F
How was I to know 
       G
That a year ago 
             Am  
I'd need to read between the lines 
           F
And every line 
          E
And thats why... 


CHORUS
    F             G              Am      G     Am
e|---------------------------------------------------------------|
B|---------------------------------------------------------------|
G|---------------------------------------------------------------|
D|--3--3s7-5--------5---5s7-5--------7--5s7-5--------------------| x3
A|--3--------7p5-7--5---------7p5-7--7--------7p5-3-5-5-5b7rp3-0-|
E|--1---------------3----------------5---------------------------|

   F             E
e|--------------------|
B|--------------------|
G|--------------------|
D|-3--3s7-5-----------| 
A|-3--------7p5-3-7\--|
E|-1------------------|

            F       G                   Am    G Am
Everytime I fall asleep my dreams are haunted 
                F        G              Am   G Am
And everytime I close my eyes I'm not alone 
                F        G                    Am    G Am
And everytime I cry I'm right back where you wanted 
                   F   
I try to drown you out so
E
Down goes another one 


Played a few times on some "Down goes another one"'s:
e|-----------------------|
B|-----------------------|
G|-----------------------|
D|--12--12/14-12-10------| 
A|-------------------12--|
E|-----------------------|
F
(Down Goes Another one) 
G
Down goes another one 
Am
(Down Goes Another one) 
C           D
Down goes another one 
F                      G
(Down Goes Another one) 

       Am
Living fast 
       C
Dying young 
         G                       D
But I'm living with what you've done 
       Am       C
And I face accusations 
         G   D
I won't run, no

                   Am                    C
I'm starting to remember things that you said 
       G                   D
I'm unravelling what they meant 
        Am 
But the world moves on 
       C            G   D
You're just another one 

            F
And how can I go on? 
                G
'Cause when I'm in the sun 
           Am
I see your shadow on the ground
                   F
But you're never there
              E
When I turn around

 
CHORUS
    F             G              Am      G     Am
e|---------------------------------------------------------------|
B|---------------------------------------------------------------|
G|---------------------------------------------------------------|
D|--3--3s7-5--------5---5s7-5--------7--5s7-5--------------------| x3
A|--3--------7p5-7--5---------7p5-7--7--------7p5-3-5-5-5b7rp3-0-|
E|--1---------------3----------------5---------------------------|

   F             E
e|--------------------|
B|--------------------|
G|--------------------|
D|-3--3s7-5-----------| 
A|-3--------7p5-3-7\--|
E|-1------------------|


            F       G                   Am    G Am
Everytime I fall asleep my dreams are haunted 
                F        G              Am   G Am
And everytime I close my eyes I'm not alone 
                F        G                    Am    G Am
And everytime I cry I'm right back where you wanted 
                   F   
I try to drown you out so
E
Down goes another one 

SOLO
e|--------------------------------------------------|
B|--------------------------------------------------|
G|--------------------------------------------------|
D|------5--5/7~~--------5--5/7~~----5--5/7~~--5--7--|
A|--77----------777777----------77------------3--5--|
E|--55----------555555----------55------------------|
PM  ..          ......          ..

e|------------------------------------------------|
B|------------------------------------------------|
G|------------------------------------------------|
D|------5--5/7~~--------5--5/7~~-----5--5/7~~--5--|
A|--77----------777777----------77-------------3--|
E|--55----------555555----------55----------------|
PM  ..          ......          ..

        F      G      Am                           F        G
e|------------------------------------------------------------|
B|--------------8---------------------------------------------|
G|--<5>-7b===-------------------------------------------------|
D|----------------5----10p7-10-7~--10p7-10-7~-------------3/5-|
A|----------------------------------------------7\-3--3-3-----|
E|----------------------------------------------5\-1----------|

             Am                                     F
e|-----------10-12---13-12-10-12-13-15---15----15b17====--|
B|-----8~~--------10-------------------17---17------------|
G|--5~----------------------------------------------------|
D|--------------------------------------------------------|
A|--------------------------------------------------------|
E|--------------------------------------------------------|

            F
And how can I go on? 
                G
'Cause when I'm in the sun 
           Am
I see your shadow on the ground
                   F
But you're never there
              E
When I turn around 

                   F       G                   Am    G Am
'Cause everytime I fall asleep my dreams are haunted 
                F        G              Am   G Am
And everytime I close my eyes I'm not alone 
                F        G                    Am    G Am
And everytime I cry I'm right back where you wanted 
                   F   
I try to drown you out so
E
Down goes another one 


(F  G  Am   C D)
Down goes another one 
Down goes another one 
Down goes another one 
Down goes another one 
Down goes another one 
Down goes another one

Played a few times on some "Down goes another one"'s:
e|-----------------------|
B|-----------------------|
G|-----------------------|
D|--12--12/14-12-10------| 
A|-------------------12--|
E|-----------------------|

Just improvise for this one if you want, sounds cool:
e|------------------10-10-10-10b12==-10~~--10-10-12-10-----------|
B|------12-12-13-13------------------------------------13-12-10~-|
G|--/14----------------------------------------------------------|
D|---------------------------------------------------------------| 
A|---------------------------------------------------------------|
E|---------------------------------------------------------------|

e|----------------------|
B|--10-12-13\8==--10~~--|
G|----------------------|
D|----------------------| 
A|----------------------|
E|----------------------|


Ending:
         Am            C             G             D
e|--------0------------3-------------3------------0h2-------|
B|------1---1--------5---5---------3---3--------3-----3-----|
G|----2--------2---5--------5----0--------0---2----------2--|
D|------------------------------------------0---------------|
A|--0------------3------------------------------------------|
E|----------------------------3-----------------------------|

         Am            C             G             
e|--------0------------3-------------3---------|
B|------1---1--------5---5---------3---3-------|
G|----2--------2---5--------5----0--------0----|
D|------------------------------------------0--|
A|--0------------3-----------------------------|
E|----------------------------3----------------| 


==============
/ - slide up
\ - slide down
= - hold note
b - bend
p - pull off
PM - palm mute (. - which notes to palm mute)
~ - vibrato
<#> - harmonic
r - release
===============
Related for Down Goes Another One tab