Song name
# A B C D E F G H I J K L M N O P Q R S T U V W X Y Z

Mcfly - Ill Be Ok Live tab

Help us improve GuitareTab! Take a short survey!
McFly
I'll Be Ok [Live @ Wolverhampton]
All the Greatest Hits - The DVD
Tuning: Standart
Video: http://www.youtube.com/watch?v=8Xm2IYTWB70
This is not much of an important tab but I absolutely love this intro and I had
to tab it out :) It's pretty long, but it sounds very nice.

e|--------------------------------------------|
B|--------------------------------------------|
G|--------------------------------------------|
D|-4-4-4-5-5-5-7-7-7--12-12-12-12-12-12-12-12-|
A|--------------------------------------------|
E|--------------------------------------------|

e|--------------------------------------------|
B|--------------------------------------------|
G|--------------------11-11-11-11-11-11-11-11-|
D|-4-4-4-5-5-5-7-7-7--------------------------|
A|--------------------------------------------|
E|--------------------------------------------|

e|--------------------------------------------|
B|--------------------------------------------|
G|--------------------14-14-14-14-14-14-14-14-|
D|-4-4-4-5-5-5-7-7-7--------------------------|
A|--------------------------------------------|
E|--------------------------------------------|

e|----------------------------------15-15-15-15-15-14-14-14-------|
B|-------------------------15-15-15-------------------------15-15-|
G|-12-12-12-12-11-11-11-11----------------------------------------|
D|----------------------------------------------------------------|
A|----------------------------------------------------------------|
E|----------------------------------------------------------------|

e|---------------------------------------------|
B|----------------------------15--15-15-15-15\-|
G|-14-14-14-14-12-12-12-12-14------------------|
D|---------------------------------------------|
A|---------------------------------------------|
E|---------------------------------------------|

e|--------------------------------------------|
B|--------------------------------------------|
G|--------------------------------------------|
D|-4-4-4-5-5-5-7-7-7--12-12-12-12-12-12-12-12-|
A|--------------------------------------------|
E|--------------------------------------------|

e|--------------------------------------------|
B|--------------------------------------------|
G|--------------------11-11-11-11-11-11-11-11-|
D|-4-4-4-5-5-5-7-7-7--------------------------|
A|--------------------------------------------|
E|--------------------------------------------|

e|-------------------------------------15-15-15-15-14-14-14-14-14-|
B|----------------------15-15-15-15-15----------------------------|
G|-12-12-12-12-12-14-14-------------------------------------------|
D|----------------------------------------------------------------|
A|----------------------------------------------------------------|
E|----------------------------------------------------------------|

e|-15-14----------------------------------------|
B|-------15-------------------------------------|
G|----------14-14-12-12-12-12-12-12-12-11-11-11-|
D|----------------------------------------------|
A|----------------------------------------------|
E|----------------------------------------------|

e|-15--14----------------------|
B|---------15------------------|
G|-------------14-14-14-14-14--|
D|-----------------------------|
A|-----------------------------|
E|-----------------------------|

e|-15-14-------------------------------------------|
B|-------15-------15-------15-------15-------15----|
G|----------14-12----14-12----14-12----14-12----14-|
D|-------------------------------------------------|
A|-------------------------------------------------|
E|-------------------------------------------------|

e|-15--14-14------------------------------|
B|-----------15-15------------------------|
G|------------------14-14-14-14-12-12-12--|
D|----------------------------------------|
A|----------------------------------------|
E|----------------------------------------|

e|-15-14-------------------------------------------------------------|
B|-------15-------15-------15-------15-----------15-15---------------|
G|----------14-12----14-12----14-12----14-12--11---------------------|
D|----------------------------------------------------12-12-12-12-12-|
A|-------------------------------------------------------------------|
E|-------------------------------------------------------------------|

e|-15-15-15-14-14-14-----------------------------|
B|-------------------15-15-15--------------------|
G|----------------------------14-14-14-12-12-11--|
D|-----------------------------------------------|
A|-----------------------------------------------|
E|-----------------------------------------------|

e|-15-14-------------------------------------------|
B|-------15-------15-------15-------15-------15----|
G|----------14-12----14-12----14-12----14-12----14-|
D|-------------------------------------------------|
A|-------------------------------------------------|
E|-------------------------------------------------|

e|-15-14---------------------------15-14----|
B|-------15------------------------------15-|
G|----------14-12-12-12-12-11-11-11---------|
D|------------------------------------------|
A|------------------------------------------|
E|------------------------------------------|

e|-15-15-15-14-14-14-------------------|
B|-------------------15-15-15----------|
G|----------------------------14-14-14-|
D|-------------------------------------|
A|-------------------------------------|
E|-------------------------------------|

e|------------------------------------------------|
B|------------------------------15-15-15-15-15-15-|
G|--12-12-12-12-12-12-12-12-----------------------|
D|------------------------------------------------|
A|------------------------------------------------|
E|------------------------------------------------|

e|-15-14-------------------------------------------|
B|-------15-------15-------15-------15-------15----|
G|----------14-12----14-12----14-12----14-12----14-|
D|-------------------------------------------------| x2
A|-------------------------------------------------|
E|-------------------------------------------------|
Related for Ill Be Ok Live tab