Song name
# A B C D E F G H I J K L M N O P Q R S T U V W X Y Z

Mcfly - No Worries tab

Help us improve GuitareTab! Take a short survey!
Highlighted       Show chord diagrams
McFly
No Worries
Transcribed by Soch H.

Capo 3rd Fret (All chords relative to capo)

Here's another alternative way to play this song.

Intro: G  D  C  D  Em  D  C  D  (x2)

Intro Riff: (Not relative to capo)
|-13--11-10---------------10h11-11s13--11-10--------------|
|-----------11s13---11h13--------------------13---11h13---|
|---------------------------------------------------------|
|---------------------------------------------------------|
|---------------------------------------------------------|
|---------------------------------------------------------|

|-10h11-10-----------------------------------13-----------|
|----------11----11s13-11-10----10-11--13b15----13pb15-11-|
|-------------10-------------12---------------------------|
|---------------------------------------------------------|
|---------------------------------------------------------|
|---------------------------------------------------------|

|-13--11-10---------------10h11-11s13--11-10--------------|
|-----------11s13---11h13--------------------13---11h13---|
|---------------------------------------------------------|
|---------------------------------------------------------|
|---------------------------------------------------------|
|---------------------------------------------------------|

|-10h11-10-----------------------------------13-------13-----------|
|----------11----11s13-11-10----10-11--13b15----13b15----13b15r-11-|
|-------------10-------------12------------------------------------|
|------------------------------------------------------------------|
|------------------------------------------------------------------|
|------------------------------------------------------------------|

G                                 Bm
We ran past strawberry fields and smelt the summertime
Em                               C             D
When it gets dark I'll hold your body close to mine
G                                 Bm
And then we'll find some wood and hell we'll build a fire
Em                                C               D
And then we'll find some rope and make a swinging tire

C                         D
Captivated by the way you look 
G            D         Em     D       A
Tonight the light is dancing in your eyes
             C   D
Your sweet eyes
                        
                         G     D
Times like these we'll never forget
                 C         D
Staying out to watch the sunset
Em           D               C   D
I'm glad I shared this with you
       G           D
Cause you set me free
                   C             D
Showed me how good my life could be
Em             D        Cm
How did this happen to me
Cm
Yeah, aww

G                             Bm
And then I'll swing you girl until you fall asleep
Em                           C            D
When you wake up you'll be lying next to me 
G                           Bm
We'll go to Hollywood, make you a movie star
Em                              C           D
I want the world to know how beautiful you are

C                         D
Captivated by the way you look 
G            D         Em     D       A
Tonight the light is dancing in your eyes
             C   D
Your sweet eyes

                         G     D
Times like these we'll never forget
                 C         D
Staying out to watch the sunset
Em           D               C   D
I'm glad I shared this with you
       G           D
Cause you set me free
                   C             D
Showed me how good my life could be
Em             D        Cm
How did you happen to me
Cm
Yeah, aww

G      D       Em     D      A
There are no secrets to be told
C             D             G
Nothing you don't already know
G       Em
Bum Bum Bum
Em                            A
We've got no fears of growing old
C               D
We've got no worries in the world

G
Ba Ba Ba Da Ba Ba Da
C        A            D
Ba Ba Ba Da Ba Ba Da Baa Ba Da Ba
(Repeat X4)

G                       G
Ending  -  Drum Roll Ending

Chords:
G: 	320033
C:      x32010
Em: 	022000
D: 	xx0232
Bm:     x24432
A:      x02220
Cm:     x35543
Related for No Worries tab