Song name
# A B C D E F G H I J K L M N O P Q R S T U V W X Y Z

Mcfly - Mr Brightside tab

McFly
Mr. Brightside (cover)
Tuning: (EADGBE) Standard Tuning
Transcribed by Soch H.

Intro Riff:
|----------------12-----------------------12-------|
|-------15----------15-----------15----------15----|
|----14----14----------14-----14----14----------14-|
|-12----------12-----------11----------11----------|
|--------------------------------------------------|
|--------------------------------------------------|

|----------------12----------------------12-------|
|-------15----------15----------15----------15----|
|----14----14----------14----14----14----------14-|
|-------------------------------------------------|
|-10----------10----------10----------10----------|
|-------------------------------------------------|

D                 A
Coming out of my cage 
                          G
And I've been doin' just fine 

Gotta gotta be down 

Because I want it all 
D                      A
It started out with a kiss 
                        G
How did it end up like this?
 
It was only a kiss 

It was only a kiss 
D                  A
Now I'm falling asleep 
                     G
And she's calling a cab 

While he's having a smoke 

And she's taking a drag 
D                     A
Now they're going to bed 
                    G
And my stomach is sick 

And it's all in my head 
                        Bm
But she's touching his chest now 
                   A
He takes off her dress now 
        G
Let me go 
|----------------------------------------------------------------------|
|----------------------------------------------------------------------|
|----------------------------------------------------------------------|
|--------------2--------------2---------------2---------------2--------|
|-----0-2-0-5----5-2--0-2-0-5----5-2--0-2-0-5----5-2--0-2-0-5---5------|
|----------------------------------------------------------------------|
P.M.|-----------------------------------------------------------------|

Bm 
And I just can't look 
      A
It's killing me 
      G
And taking control 

|----------------------------------------------------------------------|
|----------------------------------------------------------------------|
|----------------------------------------------------------------------|
|--------------2--------------2---------------2------------------------|
|-----0-2-0-5----5-2--0-2-0-5----5-2--0-2-0-5----5-2--0-2-0------------|
|-----------------------------------------------------------3-2-3-5-3--|
P.M.|-----------------------------------------------------------------|

Chorus:
D
Jealousy 
G               Bm
Turning saints into the sea 
A                        D
Swimming through sick lullabies 
G                 Bm
Choking on your alibis 
A                   D
But it's just the price I pay 
G             Bm
Destiny is calling me 
A            D     G
Open up my eager eyes 
Bm              A
Cause I'm Mr. Brightside 

D  G  Bm  A (x2)

D                     A
I'm coming out of my cage 
                           G
And I've been doin' just fine 

Gotta gotta be down 

Because I want it all 
D                      A
It started out with a kiss 
 			G
How did it end up like this? 

It was only a kiss 

It was only a kiss 
D                  A
Now I'm falling asleep 
                     G
And she's calling a cab 

While he's having a smoke 

And she's taking a drag 
D                     A
Now they're going to bed 
                   G
And my stomach is sick 

And it's all in my head 
                        Bm
But she's touching his chest now 
                   A
He takes off her dress now 
        G
Let me go 
|----------------------------------------------------------------------|
|----------------------------------------------------------------------|
|----------------------------------------------------------------------|
|--------------2--------------2---------------2---------------2--------|
|-----0-2-0-5----5-2--0-2-0-5----5-2--0-2-0-5----5-2--0-2-0-5---5------|
|----------------------------------------------------------------------|
P.M.|-----------------------------------------------------------------|

Bm
Cause I just can't look 
        A
It's killing me 
      G
And taking control 

|----------------------------------------------------------------------|
|----------------------------------------------------------------------|
|----------------------------------------------------------------------|
|--------------2--------------2---------------2------------------------|
|-----0-2-0-5----5-2--0-2-0-5----5-2--0-2-0-5----5-2--0-2-0------------|
|-----------------------------------------------------------3-2-3-5-3--|
P.M.|-----------------------------------------------------------------|

D
Jealousy 
G               Bm
Turning saints into the sea 
A                        D
Swimming through sick lullabies 
G                 Bm
Choking on your alibis 
A                   D
But it's just the price I pay 
G             Bm
Destiny is calling me 
A            D     G
Open up my eager eyes 
Bm              A
Cause I'm Mr. Brightside 

Riff:
|---------------------7-------------------------------------|
|----7---7---8---10-------10---8---7---7--7--8--7-----------|
|-7------------------------------------------------9--7--6--|
|-----------------------------------------------------------|
|-----------------------------------------------------------|
|-----------------------------------------------------------|(x2)

D  G  Bm  A
I never 
D  G  Bm  A
I never 
D  G  Bm  A
I never 
D  G  Bm  A
I never 

Chords:
D:   xx0232
A:   x02220
G:   320033
Bm:  x24432
Tap to rate this tab
 
# A B C D E F G H I J K L M N O P Q R S T U V W X Y Z