Song name
# A B C D E F G H I J K L M N O P Q R S T U V W X Y Z

Mcfly - Just My Luck tab

Highlighted       Show chord diagrams
Hey ya’ll! Hope ya enjoy these tabs n chords coz they took hours to type! Any way enjoy!

Mwahh!

All tabs/chords are standard tuning

1. I Wanna Hold You
2. I've Got You
3. Obviously
4. Ultraviolet
5. Five Colours In Her Hair
6. Too Close For Comfort
7. All About You
8. That Girl
9. Unsaid Things
10. I'll Be OK
11. Just My Luck
12. Memory Lane

1. I wanna hold you


|-3-3--3------3-3-3------3-3--3-----------6------8---|
|-3-3--3-6-5--3-3-3-6-5--3-3--3-6-5~------6------8---|
|-------------------------------------6h7----8h9-----|
|----------------------------------------------------|
|----------------------------------------------------|
|----------------------------------------------------|

|-3-3------3-3-3------3-3--3---------------------------|
|-3-3-6-5--3-3-3-6-5--3-3--3-6-5~----------------------|
|----------------------------------3-3-3---5-5-5-------|
|----------------------------------3-3-3---5-5-5--5----|
|----------------------------------1-1-1---3-3-3--5----|
|-------------------------------------------------3----|

G5                          F5   G5
Tell me that you want me baby
                    F5 
Tell me that it's true
G5
Say the magic words and I'd 
Bb5         C5         G5
Destroy the world for you

G5                          F5   G5
An army for the broken hearted
                    F5   
Marching through the streets
G5
And everything is burning
Bb5         C5         G5
To the ground under your feet

D
I wanna hold you
B                        Em
My skies are turning black
                      A
Feels like a heart attack

(played after attack)
|---------------|
|-5--3--2-2-2---|
|-4--2--2-2-2---|
|---------------|
|---------------|
|---------------|

G                         A
And I'd do anything you ask
                 D
I wanna hold you bad

G5                          F5   G5
I'd melt the polar icecaps baby
                         F5
And watch them flood the earth
G5
I'd do anything to show you
Bb5         C5         G5
What your love is worth

G5                       F5        G5
So won't you show me your devotion
                  F5 
To heal my aching heart
G5
it's like a neutron bomb explosion
Bb5     C5     G5
Tearing me apart

D
I wanna hold you
B                        Em
My skies are turning black
                      A
Feels like a heart attack

(played after attack)
|---------------|
|-5--3--2-2-2---|
|-4--2--2-2-2---|
|---------------|
|---------------|
|---------------|

G                         A
And I'd do anything you ask
                 D
I wanna hold you bad

D              Bm
Attention please,
                      E
We interrupt this program
                     A
With some disturbing news
                    D
A worldwide evacuation
Bm                E 
We're GOING TO LOSE
                                B
And they've pulverised the nation
G                                       B
I guess it shows us just what love can do


Guitar Solo:             hold bend      release
|----------------------------/---------------------------------|
|---------------------------/----------------------------------|
|----3-5-5b7==---5b7==-5b7==-[5][5]--------5pbr7--5-5---3~~----|
|--5-----------------------------------------------------------|
|--------------------------------------------------------------|
|--------------------------------------------------------------|

|---------------------------------------------------|
|---------------------------------------------------|
|-------------------------------------3-3-3-5-5-5---|
|-------------------------3-3-3-5-5-5---------------|
|-------------3-3-3-5-5-5---------------------------|
|-3-3-3-6-6-6---------------------------------------|

|-------------3-3-3--6--6b==6.5---------------------|
|-3-3-3-6-6-6---------------------------------------|
|---------------------------------------------------|
|---------------------------------------------------|
|---------------------------------------------------|
|---------------------------------------------------|

|-13-----13-----13-----13-----13-----13-----13------|
|-13b15--13b15--13b15--13b15--13b15--13b15--13b15---|
|---------------------------------------------------|
|---------------------------------------------------|
|---------------------------------------------------|
|---------------------------------------------------|

|-13-----13-----------------------|
|-13b15--13b15------11--10--11----|
|-------------------12--12--12----|
|---------------------------------|
|---------------------------------|
|---------------------------------|

|----------15-----------------15-----------------15---------|
|-------15----18p15--------15----18p15--------15----18p15---|
|-17b19--------------17b19--------------17b19---------------|
|-----------------------------------------------------------|
|-----------------------------------------------------------|
|-----------------------------------------------------------|

|----------15-------18p15-----------------------------------|
|-------15----18p15-------18p15-18p15-18p15-18p15-----------|
|-17b19-------------------------------------------17p15-----|
|-------------------------------------------------------17\-|
|-----------------------------------------------------------|
|-----------------------------------------------------------|

D
I wanna hold you
B                        Em
My skies are turning black
                      A
Feels like a heart attack
G                         A
And I'd do anything you ask
                 D
I wanna hold you bad, bad, bad
G                     A
I'd do anything you ask
                 D
I wanna hold you bad



2. I’ve got you

Intro:
  E   B      G#m   A
|-----7-7-7--4-4--5-5---------|
|-----7-7-7--4-4--5-5---------|
|-9---8-8-8--4-4--6-6---------|
|-9---9-9-9--6-6--7-7---------|
|-7---------------------------|
|-----------------------------| (x3)

|-------------------------|
|-------------------------|
|-9-9---------------------|
|-9-9---------------------|
|-7-7------x\-------------|
|----------x\--pick-scrape|

|-----7-7-7--4-4--5-5---------|
|-----7-7-7--4-4--5-5---------|
|-9---8-8-8--4-4--6-6---------|
|-9---9-9-9--6-6--7-7---------|
|-7---------------------------|
|-----------------------------| (x4)

Verse:
A                             E
The world would be a lonely place

|-------------------------------|
|-7h9--9--9--7--7--7--5--5--5---|
|-8h9--9--9--8--8--8--6--6--6---|
|-------------------------------|
|-------------------------------|
|-------------------------------|
A
Without the one who puts

|-------------------|
|-------7--x-x------|
|--6s=8----x-x------|
|-------------------|
|-------------------|
|-------------------|
   C#m
A smile on your face

|-------------------------------------|
|-7h9--9---7h9--9--7--5---------------|
|-8h9--9---8h9--9--8--6---------------|
|-------------------------------------|
|-------------------------------------|
|-------------------------------------|

A                             C#m
So hold me till the sun runs out

|--------------------------------------------|
|----4-------7s=5-------7s=5--------4s=2--2--|
|--4-4--6s=8-------6s=8--------6s=4-------2--|
|--------------------------------------------|
|--------------------------------------------|
|--------------------------------------------|

A            F#m             B
I won't be lonely when I'm down

|---------------------------------------|
|------4------5--5s=7--9-9-9-9-9-9--7---|
|-2s=4---4s=6----6s=8--9-9-9-9-9-9--8---|
|---------------------------------------|
|---------------------------------------|
|---------------------------------------|

Chorus: (Play main riff here)
               E  B  G#m  
Cause I've got you
A               E  B  G#m  A
To make me feel stronger
          E         B
When the days are rough
       G#m    A        E  B  G#m  A
And an hour seems much longer

Verse 2:
A                       E
I never doubted you at all

|-------------------------------|
|-7h9--9--9--7--7-10--9--7--5---|
|-8h9--9--9--8--8--9--9--8--6---|
|-------------------------------|
|-------------------------------|
|-------------------------------|
A
If stars collide

|-------------------|
|-------7--x-x------|
|--6s=8----x-x------|
|-------------------|
|-------------------|
|-------------------|
              C#m
Will you stand by and watch them fall?

|-------------------------------------|
|-7h9--9---7h9--9--7--5---------------|
|-8h9--9---8h9--9--8--6---------------|
|-------------------------------------|
|-------------------------------------|
|-------------------------------------|
A                           C#m
So hold me till the sky is clear
|--------------------------------------------|
|----4-------7s=5-------7s=5--------4s=2--2--|
|--4-4--6s=8-------6s=8--------6s=4-------2--|
|--------------------------------------------|
|--------------------------------------------|
|--------------------------------------------|

A            F#m
And whisper words of love
|---------------------------------------|
|------4------5--5s=7--9-9-9-9-9-9--7---|
|-2s=4---4s=6----6s=8--9-9-9-9-9-9--8---|
|---------------------------------------|
|---------------------------------------|
|---------------------------------------|
B
Right into my ear


Chorus: (Play main riff here)
               E  B  G#m  
Cause I've got you
A               E  B  G#m  A
To make me feel stronger
          E         B
When the days are rough
       G#m    A        E  B  G#m  A
And an hour seems much longer
                    E  B  G#m
Yeah, when I've got you
           A           E  B  G#m  A
Oh, it'll make me feel better
         E           B
When the nights are long
          G#m  A  E  B  G#m  A
They'll be easier together

Bridge:
Bm                E
Looking in your eyes

|----------------------|
|-15---14~-15----------|
|-------------13-------|
|-----------------14---|
|----------------------|
|----------------------|
Bm                 G
Hoping they won't cry

|--------------------|
|-12-15--14--12------|
|----------------12--|
|--------------------|
|--------------------|
|--------------------|
Em            A
Even if they do
F#m                 G    A   D
I'll be in bed so close to you
                          G
To hold you through the night
Em            A
You'll be unaware
    F#m
But if you need me
G    A    
I'll be there
|---------------------------------------|
|---------------------------------------|
|-4-4-4-4--4s6-6-6--6s8--8-8--x-x-x-----|
|-x-x-x-x--x-x-x-x--x-x--x-x--x-x-x-----|
|-2-2-2-2--2s4-4-4--4s6--6-6--x-x-x-----|
|---------------------------------------|

|-----7-7-7--4-4--5-5---------|
|-----7-7-7--4-4--5-5---------|
|-9---8-8-8--4-4--6-6---------|
|-9---9-9-9--6-6--7-7---------|
|-7---------------------------|
|-----------------------------| (x3)

|--------------------|
|--------------------|
|-9------------------|
|-9------------------|
|-7--------x\--------|
|----------x\--------|
      (Pick Scrape)

Chorus: (Play main riff here)
               E  B  G#m  
Yeah, I've got you
A               E  B  G#m  A
Oh, to make me feel stronger
          E         B
When the days are rough
       G#m    A        E  B 
And an hour seems much longer
G#m                 E  B  G#m
Yeah, when I've got you
       A           E  B  G#m  A
It'll make me feel better
         E           B
When the nights are long
          G#m  A  E  B  G#m  A
They'll be easier together

(2:53) (Play on 'Yeah, I've got you..)
|-x-x-x-x---|
|-x-x-x-x---|
|-x-x-x-x---|
|-x-x-x-x---|
|-x-x-x-x---|
|-x-x-x-x---|

|-12-12-12-11-11-11-14-14-14-11-11-11-12-12-11-11--|
|-12-12-12-12-12-12-12-12-12-12-12-12-12-12-12-12--|
|--------------------------------------------------|
|--------------------------------------------------|
|--------------------------------------------------|
|--------------------------------------------------| (x4)

Yeah, when I've got you
|-----7---4---5--------------------|
|-----7---4---5--------------------|
|-9---8---4---6--------------------|
|-9---9---6---7--------------------|
|-7--------------------------------|
|----------------------------------|



3. obviously

C         Cadd9     C    Cadd9    C         Cadd9      C     Cadd9
Recently ive been,              hopelessly reaching,
G                         F                  C      Cadd9    C   Cadd9
out for this girl, whos outta this world, believe me.
C           Cadd9     C    Cadd9       C           Cadd9     C   Cadd9
She's got a boyfriend,            he drives me round the bend,
     G           F                    C     Cadd9      C     Cadd9
Cos hes 23, he's in the marines, he'd kill me.

F          C       F                  C           Dm      G
So many nights now, i find myself thinking about her now.

CHORUS
        C                       E
Cos Obviously, she's outta my league
               F                       D 
But how can i win she keeps dragging me in, and i know i
F               G              C      E
never will be good enough for her, no no.
F              Fm              C     Cadd9      C     Cadd9
never will be good enough for her


C        Cadd9    C    Cadd9       C        Cadd9      C     Cadd9
Gotta escape now,                 get on a plane now, ooo yeah
G                 F                        C    Cadd9    C    Cadd9
Off to L.A. and thats where i'll stay for 2 years
F           C    F              C                    Dm      G
Put it behind me, and go to a place where she cant find me.

CHORUS
          C                    E
Cos Obviously, shes outta my league
                F                         D
I'm wasting my time cos she'll never be mine and i no i
F               G              C       E
never will be good enough for her, no no.
F               Fm             C         E
never will be good enough for her.


E                F               C                 Am
She's outta my hands, and i'll never know where i stand,
        D     Fm             C
cos im not, good enough for her.
  G               C
(Good enough for her)
C           F              C
Enough, enough enough for her.
G                 F                    C
(Good enough for her) Good enough for her.

       C                       E
Cos Obviously, shes outta my league
                F                         D 
I'm wasting my time cos she'll never be mine and i know i
F               G              C
Never will be good enough for her.

       C                       E
Cos Obviously, shes outta my league
               F                         D   
But how can i win she keeps dragging me in and i know i
F              G               C 
Never will be good enough for her.

       C                        E 
Cos Obviously, shes outta my league
                F                        D 
I'm wasting my time cos she'll never be mine and i know i
F               G              C       E
Never will be good enough for her, no no.
F               Fm             C
Never will be good enough for her.


4. Ultraviolet

Nothing goes to plan,
e|--------2----------------------2-------|
B|------1—--1---1--------------1---1---1-|
G|----2-------2--------------2-------2---|
D|--0----------------------0-------------|
A|---------------------------------------|
E|---------------------------------------|

It’s all a game of chance they in,
e|-------3------------------3--------|
B|-----1---1---1----------1---1---1--|
G|---2-------2----------2-------2----|
D|-0------------------0--------------|
A|-----------------------------------|
E|-----------------------------------|
  
Won--der--land
e|--------2----------------3----------2-|
B|------1—--1---1--------1---1---1----3-|
G|----2-------2--------2-------2------2-|
D|--0----------------0----------------0-|
A|--------------------------------------|
E|--------------------------------------|

There's magic in the air,
e|--------2----------------------2-------|
B|------1—--1---1--------------1---1---1-|
G|----2-------2--------------2-------2---|
D|--0----------------------0-------------|
A|---------------------------------------|
E|---------------------------------------|

A tragic love affair that I don't
e|-------3------------------3--------|
B|-----1---1---1----------1---1---1--|
G|---2-------2----------2-------2----|
D|-0------------------0--------------|
A|-----------------------------------|
E|-----------------------------------|
    
              D
Un—-der—stand
e|--------2----------------3----------2-|
B|------1—--1---1--------1---1---1----3-|
G|----2-------2--------2-------2------2-|
D|--0----------------0----------------0-|
A|--------------------------------------|
E|--------------------------------------|

Chorus:
G                 A
These summer girls are really,
D    A     Bm
some-thing else.
Em             A                      D       Dsus4
Our lives are short, the nights are long
Verse 2:
D                   G
And missus Halloween
D                             G
is drinkin at the bar again in
D                  C/G
New Orleans
G                       C 
She throws another dart
G                           C
and narrowly avoids my lonely
D
Broken heart,
D7     D7sus4
Torn apart.


Chorus:
G                   A
These summer girls are really,
D     A     Bm
some-thing else
Em              A                     D    
Our lives are short, the nights are long
    C         G7     D
The nights go on and on_____
    C         G7     D
The nights go on and on_____
    C         G7     D         G < arp this G
The nights go on and on._____


Kinda Middle 8 part:
Bm
  So pinch me i must be dreaming
D
  My life has lost all its meaning.
G                  Bm             E D  E D  E
  But I like the way I'm feeling now _________.

Bm
  Kissing your lips at midnight
D
  Under the stars and moonlight
G                    A                D
  But I never thought we'd be this wrong
C             G7      D
The nights go on and on_____,
C             G7      D
The nights go on and on_____,
C             G7      D7     D7sus4    D7     D7sus4
The nights go on and on______.   


Verse 3:
D                         G
She's looking good tonight,
D                              G   D              C/G
I love the way she glows in ul-tra-violet light.
G                   C
Intoxicate my mind,
G                                  C   D
I know that love is blind and I'm not seeing right,
D7     D7sus4
Not al-right___.


Chorus:
G                   A
These summer girls are really,
 D    A     Bm
Some-thing else.
Em             A                      
Our lives are short, the nights are long
G                   A
These summer girls are really,
D     A     Bm
some-thing else.
Em             A                      D
Our lives are short, the nights are long.
C             G7     D
The nights go on and on_____
C             G7     D
The nights go on and on_____
C             G7     D        G   < arp this G
The nights go on and on_____

Then D7 & D7sus4 repeated till the end.


5. Five colours in her hair


e|------------------------------------------------------------------|
B|------------------------------------------------------------------|
G|------------------------------------------------------------------|
D|---------------------3-4-5-5-3-5-3-------------3-4-5-5-3-5-3------|
A|---------1-2-3-1-3-5---------------5-4-3-1-3-5--------------------|
E|-3-1-3-3----------------------------------------------------------|

e|-----------------|
B|-----------------|
G|-----------------|
D|-----------------|
A|-5-4-3-1-3-1-3-4-|
E|-----------------|

D x 16

G           C         G           C     
Do do do do do - do, Do do do do do - do, 
G           C          D
Do do do do do, - do   Doooo

  G                          F               G
She's got a lip ring with 5 colours in her  hair
  G                      F                    D
Not into fashion but I love the clothes she wears
   G                        F            G                 C  D
Her tattoos always hidden by her under wear  but you don't care


 G         Bm               C           D
Everybody wants to know her nae - ae - ae - ame
  G            Bm            C          D
I had a house party and she cae - ae - ae - ame
   C            D     Bm             Em
Everyone asked me   who the hell is she,
    C           D              G
weirdo with 5 colours in her hair

  G                       F          G
She's just a loner with a sexy attitude   
 G                               F               D
I'd like to phone her cause she puts me in the mood
   G                              F                 G
The rumours spreading round that she cooks in the nude but you don't 
 C               D
care, she don't care

  G         Bm               C          D
Everybody wants to know her nae - ae - ae - ame
  G           Bm                     C          D   
How does she cope with her new found fae - ae - ae - ame
   C           D    Bm             Em
Everyone asked me who the hell is she
     C              D               G
That weirdo with 5 colours in her hair

Bridge:

  Em              Am                                F
She was all I thought about    The girl I couldn't live without
      D7              G        D                 G
But then she went insane, she couldn't take the fame
    D       C      G      C             D         Em
She said I was to blame, she had had enough, and shaved 5 colours
 G   D   C                           C              G
off and now            She's just a weirdo with no name

e|------------------------------------------------------------------|
B|------------------------------------------------------------------|
G|------------------------------------------------------------------|
D|---------------------3-4-5-5-3-5-3-------------3-4-5-5-3-5-3------|
A|---------1-2-3-1-3-5---------------5-4-3-1-3-5--------------------|
E|-3-1-3-3----------------------------------------------------------|

e|-----------------|
B|-----------------|
G|-----------------|
D|-----------------|
A|-5-4-3-1-3-1-3-4-|
E|-----------------|

D x 16


G         Bm               C           D
Everybody wants to know her nae - ae - ae - ame
  G            Bm            C          D
I had a house party and she cae - ae - ae - ame
   C            D     Bm             Em
Everyone asked me   who the hell is she,
    C           D              G
weirdo with 5 colours in her hair


G           C         G           C     
Do do do do do - do, Do do do do do - do, 
G           C          D
Do do do do do, - do   Doooo

6. too close for comfort

Intro
G D Em7 C Cm x2
Em

Em
Never meant the things i said to make you cry  
                C
Can I say I'm sorry? 
                D 
It's hard to forget
        C
Yes I regret
           G
All these mistakes  
 

Em 
I don't know why you're leaving me
                               C  
But I know you must have your reasons  
                       D
There's tears in your eyes
                C 
I watch as you cry
                  G 
But it's getting late  

       C        D         Em
Was I invading in on your secrets? 
                     C 
Was I too close for comfort?
                  D                  G
You're pushing me out when i wanted in 
            C     D         Em
What was I just about to discover?
                          C                      G        D
When I got too close for comfort in driving you home  
                Em
Guess ill never know  


Em                                                
The way we scratched our names into the sand
                      C
And told me you loved me
                D
And now that I find
                          C
That you've changed your mind
                G  
I'm lost for words


Em                             
And everything I feel for you
                              C
I wrote down on one piece of paper
                 D
The one in your hand
                 C 
You won't understand
             G
How much it hurts to let you go  
  

        C       D         Em
Was I invading in on your secrets? 
                    C 
Was I too close for comfort?
                                  G 
Your pushing me out when i wanted in 
           C     D          Em
What was i just about to discover
                            C                   G       D
When I got too close for comfort in driving you home  
               Em
Cos I'll never know  
 
 
Em                                    C
All this time you've been telling me lies
                                   D
Hidden in bags that are under your eyes
                                  Em 
And when I asked you I knew I was right
                                C 
but if you turn your back on me now 

When I need you most  
                      D    C    Cm
But you just let me down, down, down.  
                Em                             C
Won't you think about what your about to do to me 
         Cm        G
And back down  


(played softly)  
        C       D           Em
Was I invading in on your secrets?   
                     C 
Was I too close for comfort?
                D                 G(builds back up)
Your pushing me out when i wanted in 
            C    D          Em          (C and D = single strum)        
What was I just about to discover?
                    C                             
I got too close for comfort
           D                 G
Pushing me out when I wanted in  

G
Yeah, yeah, yeah

            C    D          Em
What was I just about to discover?
                         C 
When I got too close for comfort
            D  
Driving you home
                 G 
Guess I'll never know

Outro
G D Em7 C Cm x2
Em (single strum)



7. all about you

capo on 1st fret

C         Am         F         G                                    
it's all about you, it's all about you baby.
C         Am         F         G                  
it's all about you, it's all about you.
C              E                     Am          C                
yesterday you asked me something i thought you knew
     F               G                  C      
so i told you with a smile it's all about you
C                   E              Am      C              
then you whispered in my ear and told me to
         F                    G                 C   C7           
said you made my life worth while it's all about you

    F                Fm               C           Am           
and i would answer all your wishes if you ask me to
      F             D7                  G                            
but if you deny me one of your kisses don't know what i do
    C                 E                    Am          C            
so hold me close and say three words like you used to do
        F               G                 C             
dancing on the kitchen tiles it's all about you yeah

e|----------------------------------------------------------------------------|
B|----------------------------------------------------------------------------|
G|-------6--8---10--10--10--10------------------------------------------------|
D|---/8---------------------------11h10---8--10-------------------------------|
A|-------------------------------------------------11/13---13--6--4---6-4—0(1)|
E|----------------------------------------------------------------------------|

e|-------------------------11/13--13--13---13--11--9-8--9---11---9------------|
B|-6---9---6---9/11----14-----------------------------------------------------|
G|----------------------------------------------------------------------------|
D|----------------------------------------------------------------------------|
A|----------------------------------------------------------------------------|
E|----------------------------------------------------------------------------|

e|--9--8---6---8--------------------------------------------------------------|
B|----------------9--6--------------------------------------------------------|
G|-----------------------8--6--8--6-------------------------------------------|
D|----------------------------------------------------------------------------|
A|----------------------------------------------------------------------------|
E|----------------------------------------------------------------------------|
    F                Fm               C           Am              
and i would answer all your wishes if you ask me to
      F             D7                  G                                 
but if you deny me one of your kisses don't know what i do
    C                 E                    Am          C               
so hold me close and say three words like you used to do
        F               G              F                    G 
dancing on the kitchen tiles  yeah you make my life worth while
      F                 G                  C
so i told you with the smile  it's all about you yeah

C         Am     F         G                 
it's all about you, it's all about you baby
C         Am     F         G    
it's all about you, it's all about you baby

8. that girl

Intro:(Not relative to capo)
            D           Cadd9        G
|----------11-11--------9-9----------4----------------|
|-------11-11-11------9-9-9----4--6--4-6-4---4--6--4--|
|-11h12----------9h10--------5---------6-4h5----------|
|-----------------------------------------------------|
|-----------------------------------------------------|
|-----------------------------------------------------|

|--7--6--4--------------------------------------------|
|-----------7--4--------------------------------------|
|-----------------7--6--4-----------------------------|
|--------------------------6--------------------------|
|-----------------------------------------------------|
|-----------------------------------------------------|
G
Went out with the guys
Cadd9
And before my eyes
G
There was this girl 
               D
She looked so fine

(Not relative to capo)
|-11-11-9-9-8-8-------------|
|---------------11-11-9-----|
|---------------------------|
|---------------------------|
|---------------------------|
|---------------------------|
                 G
And she blew my mind
                          Cadd9
And I wished that she was mine
             G
And I said, hey wait up 

(Not relative to capo)
|-8-----8--6----6--4-4-4-4-4-4-4-4-4---------|
|------------------4-4-4-4-4-4-4-4-4---------|
|----8~------8~------------------------------|
|--------------------------------------------|
|--------------------------------------------|
|--------------------------------------------|
           D               G
Cause I'm off to speak to her
                      G
And my friends said (Never get her, never gonna...)
             Cadd9
But I didn't care
                               G
Cause I loved the long blonde hair
                     D
And love was in the air
                  G
And she looked at me
                 Cadd9
And the rest is history
G                   
Dude you're being silly 
               D                  Cadd9
Cause you're never gonna get that girl
             D
And you're never gonna get the girl

G
We spoke for hours
Cadd9
Took off my trousers
G                              D
Spent the day laughing in the sun
            G
And we had fun 
                                Cadd9
And my friends they all looked stunned yeah, yeah
G
Dude she's amazing 
        D                          G
And I can't believe you got that girl
                       G
And my friends said (She's amazing, I can't believe...)
                       Cadd9
It gave me more street cred 
                     G
I dug the book she read
                   D
And how could I forget
               G
She rocks my world
                    Cadd9
More than any other girl yeah, yeah
G                          D                        Cadd9
Dude she's amazing and I can't believe you got that girl
        D
And I can't believe you got the girl

Bm              C
She looked incredible
                Bm
Just turned seventeen
              C
I guess my friends are right
                  Em
She's out of my league
                 D
So what am I to do
                       C 
She's too good to be true

Guitar Solo: (Not relative to capo)
            G                            Cadd9					    
|------------------------------------------------------------------|
|------------------------------------------------6--4--4b4.5-------|
|---6-6-6--6p4---6p4---6p4---6p4---6p4-----------6--4--4b4.5-------|
|--------------6-----6-----6-----6-----6---4~--6-------------6--6--|
|------------------------------------------------------------------|
|------------------------------------------------------------------|
           G
|--------------------------------------------------7--9-----------|
|---------/7-7-7--/7-7-7--/7-7-7--/7-7-7-7------9-----------------|
|---------/8-8-8--/8-8-8--/8-8-8--/8-8-8-8------------------------|
|--6s13\----------------------------------------------------------|
|-----------------------------------------------------------------|
|-----------------------------------------------------------------|
   D                                                    G
|-9b11--9b11--9b11rp7---------------7-------7-------7-------7----|
|-----------------------9--9---7h9-----7h9-----7h9-----7h9-------|
|----------------------------------------------------------------|
|----------------------------------------------------------------|
|----------------------------------------------------------------|
|----------------------------------------------------------------|
                                Cadd9
|-------7-------------------------4------------------|
|--7h9-----7h9p7------------------4--7--4------------|
|-----------------8\------4--6b8----------6b8rp4-----|
|------------------------------------------------6---|
|----------------------------------------------------|
|----------------------------------------------------|
             G             D               G
|----------------------------------------------------------------|
|-----------6b7r--4----------------------------------------------|
|-6--4~~----6b7r--4h5--------------------------------------------|
|----------------------6-4---------4-----------------------------|
|--------------------------6-5-4---------------------------------|
|--------------------------------7---7----14s4-------------------|
				           rapid pick here
G
But three days later
Cadd9
Went 'round to see her
G                         D
But she was with another guy
             G                         Cadd9
And I said fine, but I never asked her why
                   G            D                G
But since then loneliness has been a friend of mine
                 G
My friends say (Such a pity, I'm sorry that...)
               Cadd9
I let her slip away
                G
They tell me everyday
                  D
That it will be okay
                     G
Yeah, she rocks my world
                    Cadd9
More than any other girl yeah
G                               D                      Cadd9
Dude it's such a pity and I'm sorry that you lost that girl
          D                        G
And I'm sorry that you lost that girl



9. unsaid things

G                                   B
This girl that moved just down the road from me
Em                            C       
She had the nicest legs i've ever seen
D
back then
G                             B
she wrote me letters just to say she loved me
Em                        C    D
now her face is just a memory

now that 
Am
seven years have gone 
               F
and i've grown up but she's moved on
              D7                  G    Gdim
somehow i'm still holding on to her
C               E           F
I still got so many unsaid things that

i wanna say
            D7
and i just can't wait another day
             G   Gdim
i wish she knew
C                E            F
i still wait up wondering if she still

remembers me
                D7              G     C
but there's no way for me to know

(You just repeat the first part for this verse)
Now she's got pregnant with a baby
it feels like shes slipping away from me
now that
she's getting married i'm in misery
coz her fiance's so much bigger than me
    Am
coz he works out alot
                F
and there's not much that he ain't got
                 D7
and right now i'm losing the plot
              G  Gdim
along with her

(Just repeat the same as the chorus, it starts with: I still got so many unsaid things, and so on)

(I'm not sure if this is right for the break but just mess around with the chords until in sounds right)

G  Em  F  (D7)  G  C

And i want her to know
before she's married and has a baby
that i need her

Solo
e|-----------------------------------------------------|
B|-0-1-3-1-0-1---0-1-3-1-0-1---0-1-5-3-1---3---0-1-3-4-|
G|-------------2-------------2-----------2---2---------|
D|-----------------------------------------------------|
A|-----------------------------------------------------|
E|-----------------------------------------------------|

C               E           F
I still got so many unsaid things that

i wanna say
            D7
and i just can't wait another day
             G   Gdim
i wish she knew
C                E            F
i still wait up wondering if she still

remembers me
                D7              G     C
but there's no way for me to know



10. ill be ok

CAPO 2nd FRET!

Intro:
e|--15-14---------------------------------------------------|
B|--------15-------15-------15-------15-------15------------|
G|-----------14-12----14-12----14-12----14-12----14---------|
D|----------------------------------------------------------|
A|----------------------------------------------------------|
E|----------------------------------------------------------| x4

e|--0---0---0---0---0-0---0--|
B|--1---1---1---1---1-1---1--|
G|--0---0---0---0---0-0---0--|
D|--2---0---2---0---2-0---2--|  x2
A|--3---3---3---3---3-3---3--|
E|--X---X---X---X---X-X---X--|

C
When everything is going wrong 
        Am
And things are just a little strange 
         Em                 F                         C
Its been so long now you've forgotten how to smile 
C                                      Am  
And overhead the skies are clear but it still seems to rain on you 
    Em                            F                    C
And your only friends all have better things to do 

               F       G
When you're down and lost 
           Em           Am
And you need a helping hand 
               F      G              C     
When you're down and lost along the way 

Oh just tell yourself 
Bb            F              C 
Ahhhh ahhh ahhh ahh, I'll be ok 


C
When things are only getting worse 
Am                                       
And you need someone to take the blame 
         Em                     F                        C               
When your lover's gone there's no one to share the pain                 

e|--0-----------------|
B|--1--5--3---5--3----|
G|--0-------0------0--|
D|--2-----------------|
A|--3-----------------|
E|--X-----------------|

C                                           Am
You're sleeping with the tv on and you're lying in an empty bed 
Em                     F                 C          
All the alcohol in the world would never help me through it again 


             F        G
When you're down and lost 
        Em               Am
And you need a helping hand 
            F        G                C
When you're down and lost along the way 
                    F
Just try a little harder 
E                 Am       C         D           
Try your best to make it through the day 

Oh just tell yourself 
Bb            F              C 
Ahhhh ahhh ahhh ahh, I'll be ok 

Bridge:
second guitar plays:

long lasting notes played in sequence with chords

e|----------------------|
B|----------------------|
G|----------------------|
D|----------------------|
A|-----3--5--7--8--10---|
E|--6-------------------|


Bb               B
You're not alone                            
[You're not alone] 

Bb               B
You're not alone 
[You're not alone] 

Bb               B        C
You're not alone 

e|--0---0---0---0---0-0---|
B|--1---1---1---1---1-1---|
G|--0---0---0---0---0-0---|
D|--2---0---2---0---2-0---|  x2
A|--3---3---3---3---3-3---|
E|--X---X---X---X---X-X---|

                             
Just tell yourself I'll, I'll be ok 
                          
Oh just tell yourself, I'll, I'll be ok 
                         Bb      F    C    G  
Won't you tell yourself, ahhhhhh ahhh ahhh ahhh 


            F        G
When you're down and lost 
         Em              Am
And you need a helping hand 
             F        G             C 
When you're down and lost along the way 
              F 
Try a little harder 
E                Am       C          D
Try your best to make it through the day 

And oh just tell yourself 

Bb            F              C 
Ahhhh ahhh ahhh ahh, I'll be ok 
Bb            F              C 
Ahhhh ahhh ahhh ahh, I'll be ok 
Bb            F              C 
Ahhhh ahhh ahhh ahh, I'll be ok 

11. just my luck

Intro Chords:   G  G/F#   Em7    D     Cadd9    D
                G  G/F#   Em7    D     Cadd9    D  G

Intro Riff:
|-----------------------------------------------------|
|-15------12------10------8------8--7--8-10-----------|
|----14~-----12~-----11~----9~------------------------|
|-----------------------------------------------------|
|-----------------------------------------------------|
|-----------------------------------------------------|

|-----------------------------------------------------|
|-15------12------10------8------8--7--8-10--8~-------|
|----14~-----12~-----11~----9~------------------------|
|-----------------------------------------------------|
|-----------------------------------------------------|
|-----------------------------------------------------|


Verse:
G       Bm      C           D
You and I have got a lot in common
G   Bm    C            D
We share all the same problems
Em                 A                 Dsus D
Luck and love and life aren't on our side

(Riff played during verse)
|-15-15-15-15-15-15-15-15-15-15-14-14-12-12-14-14---|
|-15-15-15-15-15-15-15-15-15-15-15-15-15-15-15-15---|
|---------------------------------------------------|
|---------------------------------------------------|
|---------------------------------------------------|
|---------------------------------------------------|

|-15-15-15-15-15-15-15-15-15-15-14-14-12-12-14-14-12--|
|-15-15-15-15-15-15-15-15-15-15-15-15-15-15-15-15-15--|
|-----------------------------------------------------|
|-----------------------------------------------------|
|-----------------------------------------------------|
|-----------------------------------------------------|
G   Bm       C                  D
I'm in the wrong place at the wrong time
G   Bm      C             D
Always the last one in a long line
Em           A                    Dsus D  D  B
Waiting for something to turn out right,  right


Chorus:
Cadd9 D          G   G/F# Em
I'm starting to fall in love

(Played during -love-)
|-----------------------------|
|-----------------1--0--------|
|-0---------------------2--0--|
|----4--2~----1---------------|
|-----------------------------|
|-----------------------------|
Cadd9  D           B
It's getting too much
Cadd9  D        G  G/F# Em
Not often that I slip  up

(Played during -up-)
|-------------|
|-------------|
|-0-----------|
|----4--2~----|
|-------------|
|-------------|
Cadd9  D       G
It's just my luck

Riff:
|-----------------------------------------------------|
|-15------12------10------8------8--7--8-10--8~-------|
|----14~-----12~-----11~----9~------------------------|
|-----------------------------------------------------|
|-----------------------------------------------------|
|-----------------------------------------------------|


Verse 2:
G    Bm         C             D
Rain clouds are gathering in numbers
G    Bm      C           D
Just when I put away my jumper
Em             A                 Dsus D
Luck and love still aren't on my side 

(Riff played during verse)
|-15-15-15-15-15-15-15-15-15-15-14-14-12-12-14-14---|
|-15-15-15-15-15-15-15-15-15-15-15-15-15-15-15-15---|
|---------------------------------------------------|
|---------------------------------------------------|
|---------------------------------------------------|
|---------------------------------------------------|

|-15-15-15-15-15-15-15-15-15-15-14-14-12-12-14-14-12--|
|-15-15-15-15-15-15-15-15-15-15-15-15-15-15-15-15-15--|
|-----------------------------------------------------|
|-----------------------------------------------------|
|-----------------------------------------------------|
|-----------------------------------------------------|
G Bm     C             D
I still refuse to be a skeptic
G        Bm  C              D
Cause I know I could still correct this
Em          A               Dsus D   D  B
Maybe this will be my lucky night,  night


Chorus:
Cadd9 D          G   G/F# Em
I'm starting to fall in love
Cadd9 D           B
It's getting too much
Cadd9    D          G G/F# Em
It's not often that I slip up
Cadd9 D       G    Cadd9    G   D
It's just my luck


Interlude:
G             Cadd9         G             D
Just my luck, just my luck, just my luck, now (x4)

Something to turn out right
Waiting for something
I'm waiting for something
To turn out right


Guitar Solo:
|---------------12-12-------12-12-------12-12---------------0-------------------|
|---------------12-12-------12-12-------12-12---------------0-------------------|
|---------14b16-------14b16-------14b16-------14b16r-12~----0-----------12-14---|
|-------------------------------------------------------------12-12h=14---------|
|-------------------------------------------------------------------------------|
|-3s=15\------------------------------------------------------------------------|

|--------------------------8-9-10-10b12---------------------------------|
|------------------0-10b12--------------10pb11-8~--10-------------------|
|-14b16r-12-11~---------------------------------------9~----------------|
|-----------------------------------------------------------------------|
|-----------------------------------------------------------------------|
|-----------------------------------------------------------------------|

|-3s8-8-7-7-8-8-7--7s=14-14-14-14-14-14-14-14-14s15--15-15-15-----------|
|-3s8-8-8-8-8-8-8-------------------------------------------------------|
|-----------------------------------------------------------------------|
|-----------------------------------------------------------------------|
|-----------------------------------------------------------------------|
|-----------------------------------------------------------------------|


Chorus:
Cadd9 D          G   G/F# Em
I'm starting to fall in love
Cadd9 D           B
It's getting too much
Cadd9 D        G  G/F# Em
Not often that I slip  up
Cadd9 D       G
It's just my luck

Riff:
|-----------------------------------------------------|
|-15------12------10------8------8--7--8-10-----------|
|----14~-----12~-----11~----9~------------------------|
|-----------------------------------------------------|
|-----------------------------------------------------|
|-----------------------------------------------------|

It's just my luck
|-----------------------------------------------------|
|-15------12------10------8------8--7--8-10\----------|
|----14~-----12~-----11~----9~------------------------|
|-----------------------------------------------------|
|-----------------------------------------------------|
|-----------------------------------------------------|


Outro: Luck...
  Em   D      A         Cadd9
|-0----2-2-2--0---------3------|
|-0----3-3-3--2---------3------|
|-0----2-2-2--2---------0------|
|-2----0-0-0--2---------2------|
|-2-----------0---0--2--3------|
|-0----------------------------|



12. memory lane

Capo 1st fret


Intro: (Relative to Capo)
|------------------------------------------|
|------------------------------------------|
|------------------------------------------|
|---------5-5-5-5-5-5-5-5-5-5-5-5-5-5-5-5--|
|---------5-5-5-5-5-5-5-5-5-5-5-5-5-5-5-5--|
|-10\-----3-3-3-3-3-3-3-3-3-3-3-3-3-3-3-3--|
       PM|--------------------------------|

  G              D             Em7    B7   Cadd9          G    Am/G
|-----------------------------------------------------------------|
|-----------------------------------------------------------------|
|-------------------2b3rp0--------------------------0h2p0---------|
|---------0h2p0--0---------2p0------------------0h2---------------|
|-----0h2---------------------------------------------------------|
|-----------------------------------------------------------------|
   D
|----------------------|
|-----3----------------|
|-2s4---2p0-2p0--------|
|---------------2p0----|
|----------------------|
|----------------------|

Verse:
G           D
Two years away
Em7          B7
I got back today
Cadd9           G             Am/G         D
Tried calling up this girl I used to know
G                 D
But when I said hello
Em7          B7
She didn't know 
Cadd9         G            Am/G          D
Just who the hell I was supposed to be

|----------------------|
|-----3----------------|
|-2s4---2p0-2p0--------|
|---------------2p0----|
|----------------------|
|----------------------|

Chorus:
Cadd9    G
Memory lane
Em7 
We're here again
D            Cadd9  G
Back to the days
Em7                D      Cadd9  G
And I'll remember you always
Em7           A   Em7
So much has changed
         Cadd9            D
Now it feels like yesterday I went away

Verse 2:
G            D
The words around
Em7             B7
That she moved town
Cadd9       G           Am/G            D
About a thousand miles away from here
        G                   D
And I found something she wrote
Em7          B7
A long time ago
Cadd9      G             Am/G               D
And it reminds me of a place I know called

Chorus:
Cadd9    G
Memory lane
Em7 
We're here again
D            Cadd9  G
Back to the days
Em7                 D       Cadd9  G
And I'll remember you always
Em7          A   Em7
So much has changed
         Cadd9            D
Now it feels like yesterday I went away

G              Cadd9
So much has changed (so much has changed)
               G
So much has changed (so much has changed)
               Am/G                Cm
So much has changed (so much has changed)


             Cadd9 G
Down memory lane
Em7
We're here again
D            Cadd9   G
Back to the days
Em7                D      Cadd9  G
And I'll remember you always
Em7          A   Em7
So much has changed
        Cadd9              D
Now it feels like yesterday I went away

G              Cadd9
So much has changed (so much has changed)
               G
So much has changed (so much has changed)
               Am/G                 Cm
So much has changed (so much has changed)
              G
Down memory lane
(x2)


               Cadd9
So much has changed (so much has changed)
               G
So much has changed (so much has changed)
(Repeat)
Tap to rate this tab
 
# A B C D E F G H I J K L M N O P Q R S T U V W X Y Z