Guitaretab - guitar tabs
Song name
# A B C D E F G H I J K L M N O P Q R S T U V W X Y Z

Mcfly - Transylvania tab

-------------------------------------------------------------------------------
			     Transylvania - McFly
-------------------------------------------------------------------------------
Tabbed by:James Pearce
Email:i_am_tom_delonge@hotmail.com

Tuning:Standard e a d g b e   capo on 4th fret.
This is a collection of tabs from other sites but in tab form, couldnt find tabs 
only chords so thought I may be nice and put it up as tab.
I'm sure you can work out the strumming yourself.

Organ Intro: (not relative to capo)
|-11p9-11--9------------------|
|------------12-11-9-8--9-----|
|-----------------------------|
|-----------------------------|
|-----------------------------|
|-----------------------------|
Verse
   Em   B   Em  B   C  Am  F#
e|------2-------2---0---0--2----------------------------------------------------------|
B|------4-------4---1---1--2----------------------------------------------------------|
G|------4-------4---0---2--3----------------------------------------------------------|
D|--2---4---2---4---2---2--4----------------------------------------------------------|
A|--2---2---2---2---3------4----------------------------------------------------------|
E|--0---x---0---x---x------2----------------------------------------------------------|
Em               B
Anne Boleyn she kept a tin,
       Em                B
Which all her hopes and dreams were in,
     C             Am              F#
She plans to run away with him, forever (never to be seen again)

   Em   B   Em  B   C  Am  F#
e|------2-------2---0---0--2----------------------------------------------------------|
B|------4-------4---1---1--2----------------------------------------------------------|
G|------4-------4---0---2--3----------------------------------------------------------|
D|--2---4---2---4---2---2--4----------------------------------------------------------|
A|--2---2---2---2---3------4----------------------------------------------------------|
E|--0---x---0---x---x------2----------------------------------------------------------|


Em                  B
Leaves a note and starts to choke,
     Em                  B
And feel the lump that's in her throat,
        C               Am                F#
It's raining and she leaves her coat in silence.


Pre - chorus
     B
e|---2------------------------------------------------------------------------|
B|---4------------------------------------------------------------------------|
G|---4------------------------------------------------------------------------|
D|---4------------------------------------------------------------------------|
A|---2------------------------------------------------------------------------|
E|---x------------------------------------------------------------------------|

B
We're sorry but we disagree
B
The boy is vermin, can't you see?
B
We're drowning sins and misery
B
Ripping about the history

Chorus
    Em  Bm   C   G   D  Em  Bm   Dm  G
e|-------2---0---3---2-------2---1---3--------------------------------------------------|
B|-------3---1---0---3-------3---3---0--------------------------------------------------|
G|-------4---0---0---2-------4---2---0--------------------------------------------------|
D|---2---4---2---0---0---2---4---0---0--------------------------------------------------|
A|---2---2---3---2---x---2---2---x---2--------------------------------------------------|
E|---0---x---x---3---x---0---x---x---3--------------------------------------------------|

Em                      Bm
People marching to the drums,
                    C                  G   D
Everybody's having fun to the sound of love,
Em                      Bm
Ugly is the world we're on
                           Dm
If I'm right and prove me wrong
                 G
I'm stunned (to find a place we belong)

Part 2 of Chorus

     C   G   C   G   C   G   B   Em
e|---0---3---0---3---0---3---2---------------------------------------------------------|
B|---1---0---1---0---1---0---4---------------------------------------------------------|
G|---0---0---2---0---0---0---4---------------------------------------------------------|
D|---2---0---2---0---2---0---4---2-----------------------------------------------------|
A|---3---2---x---2---3---2---2---2-----------------------------------------------------|
E|---x---3---x---3---x---3---x---0-----------------------------------------------------|


C            G
Who is your lover,
            Am
I couldn't tell,
                   G
When hell freezes over,
               C
That's when I tell,
              G
Who is your lover,
            B
I couldn't tell,
                Em
When will this stop.


Verse 2

    Em   B   Em  B   C   Am  F#
e|-------2-------2---0---0---2--------------------------------------------------------|
B|-------4-------4---1---1---2--------------------------------------------------------|
G|-------4-------4---0---2---3--------------------------------------------------------|
D|---2---4---2---4---2---2---4--------------------------------------------------------|
A|---2---2---2---2---3---x---4--------------------------------------------------------|
E|---0---x---0---x---x---x---2--------------------------------------------------------|

Em             B
Racing, pacing in the dark,
        Em              B
She's searching for a lonely heart,
     C                  Am
She finds him but his heart had stopped,
      F#
She breaks down.

Pre Chorus

     B
e|---2------------------------------------------------------------------------|
B|---4------------------------------------------------------------------------|
G|---4------------------------------------------------------------------------|
D|---4------------------------------------------------------------------------|
A|---2------------------------------------------------------------------------|
E|---x------------------------------------------------------------------------|
[ Tab from: http://www.guitaretab.com/m/mcfly/148868.html ]
B
Sorry but your majesty,
B
Refusing orders from the queen
B
Has upset her monstrosity
B
Remembers a voice and hears him sing


Chorus
    Em  Bm   C   G   D  Em  Bm   Dm  G
e|-------2---0---3---2-------2---1---3--------------------------------------------------|
B|-------3---1---0---3-------3---3---0--------------------------------------------------|
G|-------4---0---0---2-------4---2---0--------------------------------------------------|
D|---2---4---2---0---0---2---4---0---0--------------------------------------------------|
A|---2---2---3---2---x---2---2---x---2--------------------------------------------------|
E|---0---x---x---3---x---0---x---x---3--------------------------------------------------|

Em                      Bm
People marching to the drums,
                    C                  G   D
Everybody's having fun to the sound of love,
Em                      Bm
Ugly is the world we're on
                           Dm
If I'm right and prove me wrong
                 G
I'm stunned (to find a place we belong)

Part 2 of Chorus

     C   G   C   G   C   G   B   Em
e|---0---3---0---3---0---3---2---------------------------------------------------------|
B|---1---0---1---0---1---0---4---------------------------------------------------------|
G|---0---0---2---0---0---0---4---------------------------------------------------------|
D|---2---0---2---0---2---0---4---2-----------------------------------------------------|
A|---3---2---x---2---3---2---2---2-----------------------------------------------------|
E|---x---3---x---3---x---3---x---0-----------------------------------------------------|


C            G
Who is your lover,
            Am
I couldn't tell,
                   G
When hell freezes over,
               C
That's when I tell,
              G
Who is your lover,
            B
I couldn't tell,
                Em
When will this stop.

Guitar Solo: (No Capo)
e|----------------------------4-----------4---------4-----------------6-7-6-----|
B|--------------------------4---7p4-----4---7p4--------7b9-7b9-7b9--9-----------|
G|----------------------6b8---------6b8---------6b8-----------------------------|
D|-6~--6~-6~-6~-6~-6------------------------------------------------------------|
A|------------------------------------------------------------------------------|
E|------------------------------------------------------------------------------|

e|-7-7--6h7-9--7h9-9s11--9h11-11s12--11h12-12s14--12h14-14s16------16--18b19-18-18b19-|
B|--------------------------------------------------------------16-16-----------------|
G|------------------------------------------------------------------------------------|
D|------------------------------------------------------------------------------------|
A|------------------------------------------------------------------------------------|
E|------------------------------------------------------------------------------------|


Harmonizing Riff: (No capo)
e|-12--14-16-14-16-14--11--14-16-14-16-14--12--14-16-14-16-14--------------|
B|-12--16-17-16-17-16--12--16-17-16-17-16--14--16-17-16-17-16--12-------11-|
G|----------------------------------------------------------------11-13----|
D|-------------------------------------------------------------------------|
A|-------------------------------------------------------------------------|
E|-------------------------------------------------------------------------|

e|-12--14-16-14-16-14--11--14-16-14-16-14--------15-----/19~---------------|
B|-12--16-17-16-17-16--12--16-17-16-17-16--16-16----16---------------------|
G|-----------------------------------------15-15---------------------------|
D|-------------------------------------------------------------------------|
A|-------------------------------------------------------------------------|
E|-------------------------------------------------------------------------|

Chorus
    Em  Bm   C   G   D  Em  Bm   Dm  G
e|-------2---0---3---2-------2---1---3--------------------------------------------------|
B|-------3---1---0---3-------3---3---0--------------------------------------------------|
G|-------4---0---0---2-------4---2---0--------------------------------------------------|
D|---2---4---2---0---0---2---4---0---0--------------------------------------------------|
A|---2---2---3---2---x---2---2---x---2--------------------------------------------------|
E|---0---x---x---3---x---0---x---x---3--------------------------------------------------|

Em                      Bm
People marching to the drums,
                    C                  G   D
Everybody's having fun to the sound of love,
Em                      Bm
Ugly is the world we're on
                           Dm
If I'm right and prove me wrong
                 G
I'm stunned (to find a place we belong)

Part 2 of Chorus

     C   G   C   G   C   G   B   Em
e|---0---3---0---3---0---3---2---------------------------------------------------------|
B|---1---0---1---0---1---0---4---------------------------------------------------------|
G|---0---0---2---0---0---0---4---------------------------------------------------------|
D|---2---0---2---0---2---0---4---2-----------------------------------------------------|
A|---3---2---x---2---3---2---2---2-----------------------------------------------------|
E|---x---3---x---3---x---3---x---0-----------------------------------------------------|


C            G
Who is your lover,
            Am
I couldn't tell,
                   G
When hell freezes over,
               C
That's when I tell,
              G
Who is your lover,
            B
I couldn't tell,
                Em
When will this stop.


Thats it folks. CHECK OUT MY BAND www.myspace.com/karenrock
Any problems / questions just email me i_am_tom_delonge@hotmail.com


| /  slide up
| \  slide down
| h  hammer-on
| p  pull-off
| ~  vibrato
| +  harmonic
| x  Mute note
==========================================================================
Related for Transylvania tab
×
Transylvania