Song name
# A B C D E F G H I J K L M N O P Q R S T U V W X Y Z

Mcfly - Friday Night tab

Help us improve GuitareTab! Take a short survey!
McFly
Friday Night
Transcribed by Jamie Gilder

Album: Motion In The Ocean
Track: #9

NO CAPO! 

|----------------|
|                |
|     DROP D!    |
|                |
|----------------|



Intro/Main Riff:
                                                                            
|-0-0-0-0--0-0-0-0--0-0-0---0-0-0-0---0-0-0-0------------------|
|-0-0-0-0--0-0-0-0--0-0-0---0-0-0-0---0-0-0-0------------------|
|---------------------------1-1-1-1---2-2-2-2------------------|
|-2-2-2-2--2-2-2-2--2-2-2-------------------------4-4-7-4------|
|-------------------------------------------------4-4-7-4------|
|-------------------------------------------------4-4-7-4------| 


|--------------------------------------------------------------|
|--------------------------------------------------------------|
|--------------------------------------------------------------|
|-2-2-2-2--2-2-2-2--2-2-2---6-6-6-6---6-7-7-7-----4-4-7-4------|
|-2-2-2-2--2-2-2-2--2-2-2---6-6-6-6---6-7-7-7-----4-4-7-4------|
|-2-2-2-2--2-2-2-2--2-2-2---6-6-6-6---6-7-7-7-----4-4-7-4------| 



[CHORDS RELATED TO DROP D]

Verse:
E
Sleeping through the day 'cause I work all night
G#                         A
Get out the way things are coming a-live
E
Look over there, another fight
G#                                A              F# F# A F#
I guess I should've have seen the warning signs





Chorus: (Play main riff)
E
We could be together (Im not looking for a fight)
G#                A                   F#  F#  A       F#
Change the world forever (just wanna make it through the night)
E                                                     G#                   A    F#  F#  A       F#
Make it all seem better (they're really giving me the eye-ey-eye-ey-eye-ey-eye)


[BEHIND THE MAIN RIFF IS TOMS GUITAR PLAYING THIS - Listen Carefully]

|---------------------------------|
|--5-7-5-5-7-----5-5-5-5/7--------|
|---------------------------------|
|---------------------------------|
|---------------------------------|
|---------------------------------|





Think Im gonna lose it, lose it, lose it
Think Im gonna lose it, lose it, lose it

|--------------------------------------------------------------|
|--------------------------------------------------------------|
|--------------------------------------------------------------|
|-2-2-2-2--2-2-2-2--2-2-2---6-6-6-6---6-7-7-7-----4-4-7-4------|
|-2-2-2-2--2-2-2-2--2-2-2---6-6-6-6---6-7-7-7-----4-4-7-4------|
|-2-2-2-2--2-2-2-2--2-2-2---6-6-6-6---6-7-7-7-----4-4-7-4------|

Think Im gonna lose it






Verse 2:
E   [Riff]
The walls are growing ears, Im paranoid
G#                        A
No need to fear what you cant avoid
E
Dont let 'em in, dont let 'em out
G#                               A           F# F# A F#
I'll give you something you can scream about

[Riff]
|------0----0--------0----0-------0---0-------0---0---------|
|----0----0--------0----0-------0---0-------0---------------|
|-----------------------------1-----------2-----------------|  x2
|--2-------------2------------------------------------------|
|-----------------------------------------------------------|
|-----------------------------------------------------------|





Chorus: (Play main riff)
E
We could be together (Im not looking for a fight)
G#                A                   F#  F#  A       F#
Change the world forever (just wanna make it through the night)
E                                                     G#                   A
Make it all seem better (they're really giving me the eye-ey-eye-ey-eye-ey-eye)








Think Im gonna lose it, lose it, lose it
Think Im gonna lose it
|--------------|
|--------------|
|--------------|
|-7-7-7--------|
|-7-7-7--------|
|-7-7-7--------|
Think Im gonna lose it, lose it, lose it
                    B B B B
Think Im gonna lose it








Bridge:
C#             A                     B
No, no, no, nothing's wrong with dreaming
|------------------------------------|
|-16b17r-----------------------------|
|--------16----16-17b18-17b18--------|
|-----------16-----------------------|
|------------------------------------|
|------------------------------------|
C#                  A           B
Go, go, go you're dreaming all away
|-----------------------------------|
|-16b17r-17-19-16--20b21-20b21=-----|
|-----------------------------------|
|-----------------------------------|
|-----------------------------------|
|-----------------------------------|
C#     G#  A                    B
One love, one life, and thats enough to get you through the night
|------------------------------------|
|-16b17r-----------------------------|
|--------16----16-17b18-17b18--------|
|-----------16~----------------------|
|------------------------------------|
|------------------------------------|
C#               A             B
Tomorrow's gonna be a brighter day
B             B B B B B B
Hey, hey, hey








Think Im gonna lose it, lose it, lose it
Think Im gonna lose it
|--------------|
|--------------|
|--------------|
|-7-7-7--------|
|-7-7-7--------|
|-7-7-7--------|
Think Im gonna lose it, lose it, lose it
Think Im gonna lose it
|--------------|
|--------------|
|--------------|
|-7-7-7--------|
|-7-7-7--------|
|-7-7-7--------|
(x2)






Chorus: (Play main riff)
E
We could be together (Im not looking for a fight)
G#                A                   F#  F#  A       F#
Change the world forever 
E                                                     B
Make it all seem better (they're really giving me the eye-ey-eye-ey-eye-ey-eye)








Bridge: (riffs not relative to capo)
C#             A                     B
No, no, no, nothing's wrong with dreaming
|------------------------------------|
|-16b17r-----------------------------|
|--------16----16-17b18-17b18--------|
|-----------16-----------------------|
|------------------------------------|
|------------------------------------|
C#                  A           B
Go, go, go you're dreaming all away
|-----------------------------------|
|-16b17r-17-19-16--20b21-20b21=-----|
|-----------------------------------|
|-----------------------------------|
|-----------------------------------|
|-----------------------------------|
C#     G#  A                    B
One love, one life, and thats enough to get you through the night
|------------------------------------|
|-16b17r-----------------------------|
|--------16----16-17b18-17b18--------|
|-----------16~----------------------|
|------------------------------------|
|------------------------------------|
C#               A             B
Tomorrow's gonna be a brighter day


|--------------------------------------------------------|
|-5s==17-17-17-16-16-16----------------------------------|
|-----------------------16-16-16-------------------------|
|--------------------------------16-16-16-16-16-16-16----|
|--------------------------------------------------------|
|--------------------------------------------------------|
A
Hey, hey, hey
|--------------------------------------------------------|
|-----17-17-17-16-16-16----------------------------------|
|-----------------------16-16-16-------------------------|
|--------------------------------16-16-16-16-16-16-16----|
|--------------------------------------------------------|
|--------------------------------------------------------|






Outro:
Think I'm alive when I work the nights
I guess I should of seen the warning signs
|-0-0-0-0--0-0-0-0--0-0-0---0-0-0-0---0-0-0-0-----------|
|-0-0-0-0--0-0-0-0--0-0-0---0-0-0-0---0-0-0-0-----------|
|---------------------------1-1-1-1---2-2-2-2-----------|
|-2-2-2-2--2-2-2-2--2-2-2-------------------------------|
|-------------------------------------------------------|
|-------------------------------------------------------|






Chords:
E:     222xxx
F#:    444xxx
G#:    666xxx
A:     777xxx
B:     999xxx
C#:    11.11.11xxx
Related for Friday Night tab