Song name
# A B C D E F G H I J K L M N O P Q R S T U V W X Y Z

Mcfly - Going Through The Motions tab

Help us improve GuitareTab! Take a short survey!
McFly
Going Through the Motions
Radio:ACTIVE
Tuning: Standart

1234!  G#
  F                                                   F
I never thought that I'd be the one to say I've had enough 
A#   G#
Yeah 
     F                                               A# C C A# C C
I've opened up my closet, the skeletons are catching up
    A#                        A
I'm waiting for my chance to bail
         C#              D
But the goddamn ship set sail
        G         A          A#     B
I know without a doubt, that I want out
    C                           G#
But there's not a chance in hell


F
Time to admit it, a man's gotta live it
                          G G# A
Going through the motions
A#
I've hit the bottom, lost and forgotten
F
Going through the motions       
   C
My mind's about to overload
      A#                            G#
Its a timebomb and it's set to blow when we'll be
F                 A#   G#
Going through the motions
F
Go Go Go
Hey

    F   G   G#  A#
e|---------------4-4-4--6-6-6-6--|
B|--6-6-6--8-8-8-----------------|
G|-------------------------------|
D|-------------------------------|
A|-------------------------------|
E|-------------------------------|

F                                        F
10 minutes later and finally I've got it up
        A# G#
Oh yeah!

e|------------------|
B|------------------|
G|------------------|
D|------------------|
A|--6--6-4---6--8~--|
E|---------6--------|

    F                                                        A# C C A# C C
You know that something's wrong when you begun to count the dust

e|----------------------------------|
B|----------------------------------|
G|----------------------------------|
D|---------------6-8-8-6-------6----|
A|-------------8---------8-6-8------|
E|--6-6-8-8-8--------------------6--|

   A#                         A
So what's the point in aiming tall
            C#             D
When you're guarenteed to fall?
       G       A          
My reflections crack
     A#     B         C         D        G#
And looking back it's so unrecognisable


F
Time to admit it, a man's gotta live it
                          G G# A
Going through the motions
A#
I've hit the bottom, lost and forgotten
F
Going through the motions       
   C
My mind's about to overload
      A#                            G#
Its a timebomb and it's set to blow when we'll be
F                 A#   G#
Going through the motions
F
Go Go Go

Huh!

SOLO
             
            hold bend 
    G           |                 C
e|------------------------------------------------------------|            
B|----------------------------------5b6r5-3---3----------5----|
G|--5-5-5--5b7--7-7-7-7p5-3--5--3-3---------5------------5--3-|
D|----------------------------------------------5-3-----------|
A|--------------------------------------------------5-3-------|
E|------------------------------------------------------------|
  
    G                             C                            F
e|-----------8-x------8-x---------6b8=r6-------------------------|
B|--8-x-11-x-----11-x-----11-8~----------------------------------|
G|----------------------------------------5--3-------------------|
D|---------------------------------------------/5-5-5------------|
A|-----------------------------------------------------3-1---3---|
E|---------------------------------------------------------3---1-|

    C    C#  D   D# E    A#            C C#
e|----------------------/6666666666666-8-99999999--|
B|-------------------------------------------------|
G|--/555-666-777-8899------------------------------|
D|-------------------------------------------------|
A|-------------------------------------------------|
E|-------------------------------------------------|
    D#                          F
e|--11-11-11-11-11-11-11-11-11--13~--|
B|-----------------------------------|
G|-----------------------------------|
D|-----------------------------------|
A|-----------------------------------|
E|-----------------------------------|


Going through the motions
Going through the motions

e|------------|
B|------------|
G|----8-------|
D|------6~----|
A|------------|
E|------------|

Going through the motions
Going through the motions 

F                 A#
Going through the motions \
F                 A#
Going through the motions  |
F                 A#          palm muted
Going through the motions  |
F                 A#
Going through the motions /


F                 A#
Going through the motions
F                 A#
Going through the motions
F                 A#
Going through the motions
C
WOAW!                                     palm mute
                                              | 
F                                        F    F   F G G# A 
Time to admit it, a man's gotta live it
    A#
Oh, I've hit the bottom, lost and forgotten
F
Going through the motions       
   C
My mind's about to overload
      A#                            G#
Its a timebomb and it's set to blow when we'll be
F                 D#   A#
Going through the motions
F                 D#   A#
Going through the motions
F                 D#   A#
Going through the motions
F                 D#   A#
Going through the motions
F                 D#   A#
Going through the motions 
F                 D#   A#
Going through the motions
F                 D#   A#
Going through the motions
F               
Going through the motions
       F
Yeah!
Related for Going Through The Motions tab