Song name
# A B C D E F G H I J K L M N O P Q R S T U V W X Y Z

Mcfly - The Last Song tab

The Last Song
McFly
Radio:ACTIVE
Tuning: Standart
Last update: 11/08/08
All chords are powerchords.

INTRO
E|----------------|
B|----------------|
G|----------------|          
D|----4----6---8--| x4        
A|----------------|           
E|-2--------------|

VERSE 1
(No chords, but if you want to play)
    F#
The time has come to say goodbye
    B
The sun is setting in the sky
    D#m
The truth's turned out to be a lie
     E     D#m
It's over, over
G#m
Hum yourself a lullaby
     C#                             F#
This is the end, but baby don't you cry

INTRO x2

VERSE 2
   F#
So take away the melody
    B
And all that's left are memories
   D#m
Of lovers, friends, and enemies
E           D#m
They're all fading
G#m
You may not remember me
  B
I haven't got the strength to carry on
e|-----------------------|
B|-----------------------|
G|----4-4-4-4-4-44444444-|
D|----4-4-4-4-4-44444444-| 
A|----2-2-2-2-2-22222222-|
E|-----------------------|
PM    . . . . . ..

                                                         
CHORUS  
F#                         A#m
If this is the last song I ever sing
                   B
Then I'm giving it everything
              C#   D#  F
I'm giving it all
F#                         A#m
If this is the last song I ever play
                  B
Then I guess it's time to take
   C#
My curtain call

I'm dying to thank you all... Thank you all, yeah
e|-------------------|       e|-----------------------| 
B|-------------------|       B|-----------------------|
G|-------------------|       G|--9-8-6-6-6-6-6-6-6-6--|
D|--999-8-6-4-4-4-4--| x3    D|--9-8-6-6-6-6-6-6-6-6--|
A|--999-8-6-4-4-4-4--|       A|--7-6-4-4-4-4-4-4-4-4--|
E|--777-6-4-2-2-2-2--|       E|-----------------------|

e|-----------------------|
B|-----------------------|
G|-----------------------|
D|--4---444444444444444--|
A|--4---444444444444444--|
E|--2---222222222222222--|
PM      ...........

VERSE 3
   F#
So here's to all the lonely hearts
      B
Cause mine's been ripped and torn apart
 D#m 
Colder now, it's getting dark
    E       D#m
But I'll be ok
G#m                        B
Bury me with my guitar and on the way to hell I'll play
e|------------------------|
B|------------------------|
G|---------------4-4-4-4--|
D|--6-666666666--4-4-4-4--| 
A|--6-666666666--2-2-2-2--|
E|--4-444444444-----------|
PM    .......

CHORUS x1

BREAKDOWN
e|-----------------------------------------------------|
B|-----------------------------------------------------|
G|-----------------------------------------------------|
D|-4~----4-8-11-13~---4-8-11-9~--4-9-8-6---------------| 
A|-4~----4-8-11-13~---4-8-11-9~--4-9-8-6---------------|
E|-2~----2-6-9--11~---2-6-9--7~--2-7-6-4---4-6-7-8-9~~-|

e|---------------------------------------------------------------------|
B|---------------------------------------------------------------------|
G|-11~-----------------------------------------------------------------|
D|-11~--4-8-11-13~---4-8-11-9~--4-9-8-6--6-8-9-11-11-11-11-11-11-11-11-|
A|-9~---4-8-11-13~---4-8-11-9~--4-9-8-6--6-8-9-11-11-11-11-11-11-11-11-|
E|------2-6-9--11~---2-6-9--7~--2-7-6-4--4-6-7-9--9--9--9--9--9--9--9--|


CHORUS
F#                         A#m
If this is the last song I ever sing
                   B
Then I'm giving it everything
              C#   D#  F
I'm giving it all
F#                         A#m
If this is the last song I ever play
                  B
Then I guess it's time to take
   C#
My curtain call

e|-----------------------------------|
B|------------------------------4-6--|
G|---------------------3--3-4-6------|
D|-----------3-4-3-4-6--6------------|
A|--\4-6-4-6-------------------------|
E|-----------------------------------|
    
Guitar 1
e|------------------------------------------4-6-7-| 
B|-7--6--4--2--0--2---2-4-6--7--6--5-4--5-8-------|  
G|---------------4--------------------------------|   
D|------------------------------------------------|   
A|------------------------------------------------|   
E|------------------------------------------------|   
 
Guitar 2                                     
e|-------------------------------------|      
B|-------------------------------------|   
G|--11~--10~--8~---6~---4~--6~--6-8-10-|      
D|--11~--10~--8~---6~---4~--6~--6-8-10-| x2   
A|--9~---8~---6~---4~---2~--4~--4-6-8--|     
E|-------------------------------------|   

OUTRO
E|------------------------------------------------------|
B|------------------------------------------------------|
G|-------------------------------8---------4------------|
D|----4---6---8-------4---6---8--9--4-6-8--6--6-8-9---8-| 
A|-----------------7----------------------------------9-|
E|-2----------------------------------------------------|
Tap to rate this tab
# A B C D E F G H I J K L M N O P Q R S T U V W X Y Z