Song name
# A B C D E F G H I J K L M N O P Q R S T U V W X Y Z

Mcfly - Lies tab

-------------------------------------------------------------------------------
			     LIES - McFLY
-------------------------------------------------------------------------------
Tabbed by: Jamie Gilder
Email: JamieGilder@hotmail.com

Tuning: EADGBE

Well, no one has done a completely correct version of this song on here.
And I've had the Promo Disc since June.

This is the correct Studio Version that will be out for release on the 15th September.



INTRO

e|--0--------|
B|--0--------|
G|--0--------|
D|--0--------|
A|--0--------|
E|-----------|



INTRO

e|-------------------------------------------------------------|          --------------|
B|-------------------------------------------------------------|                        |
G|-------------------------------------------------------------|                        |
D|--------0--2--0------------------0--2--0---------------------|                GTR. 1  |
A|--0--3-----------3-0-3-----0--3-----------3-0-3--------------|                        |
E|-------------------------------------------------------------|                        |
                                                                                        |
e|-------------------------------------------------------------|                        |
B|-------------------------------------------------------------|                        |
G|-------------------------------------------------------------|                        |
D|--------0--2--0------------------0--2--2--0------------------|                GTR. 1  |
A|--0--3-----------3-0-3-----0--3-------------3-0--------------|                        |
E|-------------------------------------------------------------|                        |
                                                                                        |
                                                                                        |
e|---------------------------------------------------------------------------|          |
B|---------------------------------------------------------------------------|          | 
G|--7-7-7-7-7-7-7-7----------------------------------------------------6-7---|          |
D|--7-7-7-7-7-7-7-7--8-8-8-8-8-8-8-8--9-9-9-9-9-9-9-9--8-8-8-8--7-7-7--6-7---|  GTR. 2  |
A|--5-5-5-5-5-5-5-5--8-8-8-8-8-8-8-8--9-9-9-9-9-9-9-9--8-8-8-8--7-7-7--4-5---|          |
E|-------------------6-6-6-6-6-6-6-6--7-7-7-7-7-7-7-7--6-6-6-6--5-5-5--------|   -------|




VERSE

e|------------------|
B|------------------|
G|---------0h2------|
D|--0-2-3-------0---| GTR. 2
A|------------------|
E|------------------|

  |------       e|--11--11-11-11-11-11-11-13----11--11-11-11-11-11-11--13---------------|
  |             B|--10--10-10-10-10-10-10-10----10--10-10-10-10-10-10--10---------------|
  |             G|----------------------------------------------------------------------|
  |             D|----------------------------------------------------------------------|
  |             A|----------------------------------------------------------------------|
  |             E|----------------------------------------------------------------------|
  |   GTR. 1
  |             e|--10--10-10-10-10h11h13--13--13h14h13---------------------------------|
  |             B|--10--10-10-10-10--------10--10---------------------------------------|
  |             G|----------------------------------------------------------------------|
  |             D|----------------------------------------------------------------------|
  |             A|----------------------------------------------------------------------|
  |------       E|----------------------------------------------------------------------|

e|-------------------------------------------------------|
B|-------------------------------------------------------|
G|------------------------------------------------6---9--|
D|--0-2-3-5/7-8---7--0-2-3-5/7-8---7\----------7--6---9--|
A|------------8---7------------8---7\----------7--4---7--|
E|------------6---5------------6---5\----------5---------|





CHORUS

e|--------------------------------------------------------------------------------------|
B|--------------------------------------------------------------------------------------|
G|--7-7-7-7---------------------------6-7-7-7-7---------------------------6-------------|
D|--7-7-7-7--8-8-8-8--9-9-9-9--8-8-9--6-7-7-7-7--8-8-8-8--9-9-9-9--8-8-7--6-------------|
A|--5-5-5-5--8-8-8-8--9-9-9-9--8-8-7--4-5-5-5-5--8-8-8-8--9-9-9-9--8-8-7--4-------------|
E|-----------6-6-6-6--7-7-7-7--6-6-5-------------6-6-6-6--7-7-7-7--6-6-5----------------|





INTRO

e|-------------------------------------------------------------|          --------------|
B|-------------------------------------------------------------|                        |
G|-------------------------------------------------------------| REPEAT x2              |
D|--------0--2--0------------------0--2--0---------------------|                GTR. 1  |
A|--0--3-----------3-0-3-----0--3-----------3-0-3--------------|                        |
E|-------------------------------------------------------------|                        |
                                                                                        |
e|---------------------------------------------------------------------------|          |
B|---------------------------------------------------------------------------|          | 
G|--7-7-7-7-7-7-7-7----------------------------------------------------6-7---|          |
D|--7-7-7-7-7-7-7-7--8-8-8-8-8-8-8-8--9-9-9-9-9-9-9-9--8-8-8-8--7-7-7--6-7---|  GTR. 2  |
A|--5-5-5-5-5-5-5-5--8-8-8-8-8-8-8-8--9-9-9-9-9-9-9-9--8-8-8-8--7-7-7--4-5---|          |
E|-------------------6-6-6-6-6-6-6-6--7-7-7-7-7-7-7-7--6-6-6-6--5-5-5--------|   -------|




VERSE

e|------------------|
B|------------------|
G|---------0h2------|
D|--0-2-3-------0---| GTR. 2
A|------------------|
E|------------------|

  |------       e|--11--11-11-11-11-11-11-13----11--11-11-11-11-11-11--13---------------|
  |             B|--10--10-10-10-10-10-10-10----10--10-10-10-10-10-10--10---------------|
  |             G|----------------------------------------------------------------------|
  |             D|----------------------------------------------------------------------|
  |             A|----------------------------------------------------------------------|
  |             E|----------------------------------------------------------------------|
  |   GTR. 1
  |             e|--10--10-10-10-10h11h13--13--13h14h13---------------------------------|
  |             B|--10--10-10-10-10--------10--10---------------------------------------|
  |             G|----------------------------------------------------------------------|
  |             D|----------------------------------------------------------------------|
  |             A|----------------------------------------------------------------------|
  |------       E|----------------------------------------------------------------------|

e|--------------------------------------|
B|--------------------------------------|
G|-------------------------------6---9--|
D|--0-2-3-5/7-8---7\----------7--6---9--|
A|------------8---7\----------7--4---7--|
E|------------6---5\----------5---------|





CHORUS

e|--------------------------------------------------------------------------------------|
B|--------------------------------------------------------------------------------------|
G|--7-7-7-7---------------------------6-7-7-7-7---------------------------6-------------|
D|--7-7-7-7--8-8-8-8--9-9-9-9--8-8-9--6-7-7-7-7--8-8-8-8--9-9-9-9--8-8-7--6-------------|
A|--5-5-5-5--8-8-8-8--9-9-9-9--8-8-7--4-5-5-5-5--8-8-8-8--9-9-9-9--8-8-7--4-------------|
E|-----------6-6-6-6--7-7-7-7--6-6-5-------------6-6-6-6--7-7-7-7--6-6-5----------------|



BRIDGE

e|--3-----5-----5---------------3-----5-------------------------------------------------|
B|--3-----6-----5---------------3-----6-------------------------------------------------|
G|--3-----7-----6---------------3-----7-------------------------------------------------|
D|--5-----7-----7---0-2-3-5/7---5-----7-----7-7-7-7-7-7-7-7-7-7-7-7-7-7-7-7-------------|
A|--5-----5-----7---------------5-----5-----7-7-7-7-7-7-7-7-7-7-7-7-7-7-7-7-------------|
E|--3-----------5---------------3-----------5-5-5-5-5-5-5-5-5-5-5-5-5-5-5-5-------------|



BASS SOLO

e|--------------------------------------------|
B|--------------------------------------------|
G|--7-7---------------------------------------|
D|--7-7---8-8---9-9--8-8--7-------------------|
A|--5-5---8-8---9-9--8-8--7-------------------|
E|--------6-6---7-7--6-6--5----15\5-----------|




INTRO

e|-------------------------------------------------------------|          --------------|
B|-------------------------------------------------------------|                        |
G|-------------------------------------------------------------|                        |
D|--------0--2--0------------------0--2--0---------------------|                GTR. 1  |
A|--0--3-----------3-0-3-----0--3-----------3-0-3--------------|                        |
E|-------------------------------------------------------------|                        |
                                                                                        |
e|-------------------------------------------------------------|                        |
B|-------------------------------------------------------------|                        |
G|-------------------------------------------------------------|                        |
D|--------0--2--0------------------0--2--2--0------------------|                GTR. 1  |
A|--0--3-----------3-0-3-----0--3-------------3-0--------------|                        |
E|-------------------------------------------------------------|                        |
                                                                                        |
                                                                                        |
e|--------------------------------------------------------------------------|           |
B|--------------------------------------------------------------------------|           | 
G|--7-7-7-7-7-7-7-7----------------------------------------------------6----|           |
D|--7-7-7-7-7-7-7-7--8-8-8-8-8-8-8-8--9-9-9-9-9-9-9-9--8-8-8-8--7-7-7--6----|  GTR. 2   |
A|--5-5-5-5-5-5-5-5--8-8-8-8-8-8-8-8--9-9-9-9-9-9-9-9--8-8-8-8--7-7-7--4----|           |
E|-------------------6-6-6-6-6-6-6-6--7-7-7-7-7-7-7-7--6-6-6-6--5-5-5-------|   --------|





MIDDLE 8

e|--------------------------------------------------------------------------|
B|--------------------------------------------------------------------------|
G|--7----9----7--9--10--12/14-----15------------------------------6---9-----|
D|--7----9----x--x--x---xx/xx-----xx-------7\---7\----7\------7---6---9-----|
A|--5----7----5--7--8---10/12-----13-------7\---7\----7\------7---4---7-----|
E|-----------------------------------------5\---5\----5\------5-------------|





CHORUS

e|--------------------------------------------------------------------------------------|
B|--------------------------------------------------------------------------------------|
G|--7-7-7-7---------------------------6-7-7-7-7---------------------------6-------------|
D|--7-7-7-7--8-8-8-8--9-9-9-9--8-8-9--6-7-7-7-7--8-8-8-8--9-9-9-9--8-8-7--6-------------|
A|--5-5-5-5--8-8-8-8--9-9-9-9--8-8-7--4-5-5-5-5--8-8-8-8--9-9-9-9--8-8-7--4-------------|
E|-----------6-6-6-6--7-7-7-7--6-6-5-------------6-6-6-6--7-7-7-7--6-6-5----------------|




OUTRO

e|--------------------------------------------------------------------------------------|
B|--------------------------------------------------------------------------------------|
G|--7-7-7-7---------------------------6-7-7-7-7---------------------------6-------------|
D|--7-7-7-7--8-8-8-8--9-9-9-9--8-8-9--6-7-7-7-7--8-8-8-8--9-9-9-9--8-8-7--6-------------|
A|--5-5-5-5--8-8-8-8--9-9-9-9--8-8-7--4-5-5-5-5--8-8-8-8--9-9-9-9--8-8-7--4-------------|
E|-----------6-6-6-6--7-7-7-7--6-6-5-------------6-6-6-6--7-7-7-7--6-6-5----------------|

                                                      e|-----------|
                                                      B|-----------|
                                                      G|-----------|
                                                      D|--5-5-5-5--|
                                                      A|--5-5-5-5--|
                                                      E|--3-3-3-3--|

e|-----------------------------------------------------------------|
B|-----------------------------------------------------------------|
G|--7--10--12--14--12--10--7--10-----------------------------------|
D|--x--x---xx--xx--xx--x---x--x------------------------------------| GTR. 2
A|--5--8---10--12--10--8---5--8------------------------------------|
E|-----------------------------------------------------------------|




e|------------|
B|------------|
G|------5--7--|
D|------5--7--|
A|------3--5--|
E|------------|


| /  slide up
| \  slide down
| h  hammer-on
| p  pull-off
| ~  vibrato
| +  harmonic
| x  Mute note
===============================================================================
Tap to rate this tab
# A B C D E F G H I J K L M N O P Q R S T U V W X Y Z