Song name
# A B C D E F G H I J K L M N O P Q R S T U V W X Y Z

Mcfly - The End tab

this is my first tab eveer.. so I'm not sure if it's going to be right :P
figure out the strum yourself .. if you listen the song its easy
(sorry for my english) :)

first part :

e--------------------------------|
b--------------------------------|
g--14------11-----9/7/5/11--7----|
d----- x4-----x3-----------------|
a--12------9------7/5/7/9---5----|
E--------------------------------|
  (2:47 to 2:51)

"/ slide"

Part II:

e--------------------10-10--12--14--14--14--12--12--11--10--12--14--14--14-14-|
b--------------------10-10--10--10--10--10--10--10--10--10--10----------------|
g---7--9--11--14--9-----------------------------------------------------------|
d--7--------------------------------------------------------------------------|
a-----------------------------------------------------------------------------|
E-----------------------------------------------------------------------------|


e----12--10-------|
b------------12---|
g-----------------|
d-----------------|
a-----------------|   this last part it's played very fast.. but im not sure
E-----------------|    its ok..


anything you need, you can write me to pao_mcf182@hotmail.com
don't be so hursh.. remember it's my first tab :)
i hope it helps ..
Tap to rate this tab
# A B C D E F G H I J K L M N O P Q R S T U V W X Y Z