Song name
# A B C D E F G H I J K L M N O P Q R S T U V W X Y Z

Mcfly - Only The Strong Survive tab

McFly
Only The Strong Survive
Radio:ACTIVE Deluxe Edition
Tuning: Standart

           CHORDS
     _________________
    |   G1   |   G2   |
E   | x79997 | x799xx | 
    |            or   |
    |          022xxx |
A   | 577655 | 577xxx |
B   | 799877 | 799xxx |
C#m | x46654 | x466xx |
F#m | 244222 | 244xxx |
    |_________________|

INTRO
           G1                     G2
e|----------------------| |------0--0--0--|
B|----------------------| |----0--0-------|
G|--1--2--2/4--4/6-4-2--| |---------------|
D|----------------------| |--2--2---------|
A|----------------------| |---------------|
E|----------------------| |---------------|


VERSE 1
Same as intro

The worst is over
And the sky is clear
And there's not a place on Earth I'd rather be than here
But on the horizon
As the morning breaks
                                                 B
I can see a brand new day that's full of new mistakes


CHORUS
                              E    A  B
They tell me that only the strong survive
             A                  E    A   B
I don't know if I'll make it through the night
        C#m  A              E  A  B
I guess I'll see you in the afterlife
             A                C#m  A  B
They tell me that only the strong survive

e|-------------|
B|-------------|
G|-------------|
D|-------------|
A|--22---------|
E|-----55-4-2--|


INTRO x1


VERSE 2
Same as intro

Gotta keep on running
Stay on the attack
                                                       B
'Cause the day you quit's the day you wish you had it back


CHORUS
                              E    A  B
They tell me that only the strong survive
             A                  E    A   B
I don't know if I'll make it through the night
        C#m  A              E  A  B
I guess I'll see you in the afterlife
             A                C#m  A  B
They tell me that only the strong survive

e|-------------|
B|-------------|
G|-------------|
D|-------------|
A|--22---------|
E|-----55-4-2--|


BRIDGE
F#m
    If we're gonna die tomorrow
C#m
    At least we can say
              A  E
Life has been alright
               A  E
Yeah it's been alright

F#m
   We can beg and we can borrow
C#m
   But in the end 
             D  
Everything's alright
             A
Everything's alright, alright

INTRO x2

BREAKDOWN
Same as intro

Everytime we get up we'll be destined to fall
And I'm asking myself, is it worth this at all?
Every corner we turn we just run into walls
Because loving you feel's like a kick in your balls

Everytime we get up we'll be destined to fall (destined to fall)
And I'm asking myself, is it worth this at all? (worth this at all)
Every corner we turn we just run into walls
Because loving you feel's like a kick in your balls

e|-------------|
B|-------------|
G|---------4---| x2
D|--2---7--4---|
A|--2---7--2---|
E|--0---5------|

CHORUS
                              E    A  B
They tell me that only the strong survive
             A                  E    A   B
I don't know if I'll make it through the night
        C#m  A              E  A  B
I guess I'll see you in the afterlife
             A                C#m  A  B
They tell me that only the strong survive

E  A  B  A  x3

Na na na na na

             A                C#m  A  B
They tell me that only the strong survive

e|---------------|
B|---------------|
G|---------------|
D|---------------| x2
A|--22-----------|
E|-----55-44-22--|

e|--------------------|
B|--------------------|
G|--------------------|
D|---------------2~~--|
A|--22-----------2~~--|
E|-----55-44-22--0~~--|
Tap to rate this tab
# A B C D E F G H I J K L M N O P Q R S T U V W X Y Z