Song name
# A B C D E F G H I J K L M N O P Q R S T U V W X Y Z

Mcfly - Too Close For Comfort Live tab

McFly
Too Close For Comfort Live
Wonderland Tour 2005 - Live In Manchester
Video: http://www.youtube.com/watch?v=NRdYG0zLmkQ

G1 (Tom) - Standard Tuning w/ Distortion and Reverb
G2 (Danny) - Standard Tuning w/ Distortion and Reverb

// GUITAR 1 (TOM) 
INTRO
|--------10-------10-----------10-------10---------10-----10-----------------|
|--12-12----12-12----12--10-10----10-10----10--8-8----8-8----8--5-7-8-4--10--|
|----------------------------------------------------------------------------|
|----------------------------------------------------------------------------|
|----------------------------------------------------------------------------|
|----------------------------------------------------------------------------|

|--------10-------10-----------10-------10---------10-----10-------------|
|--12-12----12-12----12--10-10----10-10----10--8-8----8-8----8--5-7-8-4--|
|------------------------------------------------------------------------|
|------------------------------------------------------------------------|
|------------------------------------------------------------------------|
|------------------------------------------------------------------------|


|------0---------0--|
|------0---------0--|
|------0---------0--|
|------2---------2--|
|------2---------2--|
|--0---0-----0---0--|

VERSE 1         
01:35               
|--<12>---------<7>------------------------|
|--------<12>------------<7>---------<12>--|
|------------------------------------------|
|-------------------<5>-------<5>----------|
|------------------------------------------|
|------------------------------------------|

CHORUS
|--0--------2h3p2--7-7-7-7-x--7-7-7-7-x--7-7-7-7-x--7-7-7-7-x--|
|--1------3--------8-8-8-8-x--8-8-8-8-x--8-8-8-8-x--8-8-8-8-x--|
|--0----2----------9-9-9-9-x--9-9-9-9-x--9-9-9-9-x--9-9-9-9-x--|
|--2--0------------9-9-9-9-x--9-9-9-9-x--9-9-9-9-x--9-9-9-9-x--|
|--3---------------7-7-7-7-x--7-7-7-7-x--7-7-7-7-x--7-7-7-7-x--|
|--------------------------------------------------------------|

|--0--------2h3p2--3-3-3-3-3-3-3-3-3-3--|
|--1------3--------3-3-3-3-3-3-3-3-3-3--|
|--0----2----------0-0-0-0-0-0-0-0-0-0--|
|--2--0------------0-0-0-0-0-0-0-0-0-0--|
|--3---------------2-2-2-2-2-2-0-0-0-0--|
|------------------3-3-3-3-3-3----------|

|--0--------2h3p2--7-7-7-7-x--7-7-7-7-x--7-7-7-7-x--7-7-7-7-x--|
|--1------3--------8-8-8-8-x--8-8-8-8-x--8-8-8-8-x--8-8-8-8-x--|
|--0----2----------9-9-9-9-x--9-9-9-9-x--9-9-9-9-x--9-9-9-9-x--|
|--2--0------------9-9-9-9-x--9-9-9-9-x--9-9-9-9-x--9-9-9-9-x--|
|--3---------------7-7-7-7-x--7-7-7-7-x--7-7-7-7-x--7-7-7-7-x--|
|--------------------------------------------------------------|

|--0---2--|
|--1---3--|
|--0---2--|
|--2---0--|
|--3------|
|---------|

POST CHORUS
|-0-----------|
|-0-----------|
|-0-----------|
|-2--------2--|
|-2--5-7-4-2--|
|-0--3-5-2-0--|

VERSE 2
|--12-12-12-----19-19-19--------|
|-----------12-----------15-----|
|---------------------------12--|
|-------------------------------|
|-------------------------------|
|-------------------------------|

|--14-14-----------------|
|--------15----12--------|
|-----------14-------12--|
|-----------------12-----|
|------------------------|
|------------------------|

|--12-12-12-----19-19-19--------|
|-----------12-----------15-----|
|---------------------------12--|
|-------------------------------|
|-------------------------------|
|-------------------------------|

|--14-14---------------------|
|--------15----12------------|
|-----------14-------12------|
|-----------------12-----\x--|
|------------------------\x--|
|------------------------\x--|

CHORUS
|--0--------2h3p2--7-7-7-7-x--7-7-7-7-x--7-7-7-7-x--7-7-7-7-x--|
|--1------3--------8-8-8-8-x--8-8-8-8-x--8-8-8-8-x--8-8-8-8-x--|
|--0----2----------9-9-9-9-x--9-9-9-9-x--9-9-9-9-x--9-9-9-9-x--|
|--2--0------------9-9-9-9-x--9-9-9-9-x--9-9-9-9-x--9-9-9-9-x--|
|--3---------------7-7-7-7-x--7-7-7-7-x--7-7-7-7-x--7-7-7-7-x--|
|--------------------------------------------------------------|

|--0--------2h3p2--3-3-3-3-3-3-3-3-3-3--|
|--1------3--------3-3-3-3-3-3-3-3-3-3--|
|--0----2----------0-0-0-0-0-0-0-0-0-0--|
|--2--0------------0-0-0-0-0-0-0-0-0-0--|
|--3---------------2-2-2-2-2-2-2-2-2-2--|
|------------------3-3-3-3-3-3-3-3-3-3--|

|--0--------2h3p2--7-7-7-7-x--7-7-7-7-x--7-7-7-7-x--7-7-7-7-x--|
|--1------3--------8-8-8-8-x--8-8-8-8-x--8-8-8-8-x--8-8-8-8-x--|
|--0----2----------9-9-9-9-x--9-9-9-9-x--9-9-9-9-x--9-9-9-9-x--|
|--2--0------------9-9-9-9-x--9-9-9-9-x--9-9-9-9-x--9-9-9-9-x--|
|--3---------------7-7-7-7-x--7-7-7-7-x--7-7-7-7-x--7-7-7-7-x--|
|--------------------------------------------------------------|

|--0---2--|
|--1---3--|
|--0---2--|
|--2---0--|
|--3------|
|---------|

BRIDGE
|--7-7-7-7-x--7-7-7-7-x--7-7-7-7-x--7-7-7-7-x--0--------2h3p2---------------|
|--8-8-8-8-x--8-8-8-8-x--8-8-8-8-x--8-8-8-8-x--1------3---------------------|
|--9-9-9-9-x--9-9-9-9-x--9-9-9-9-x--9-9-9-9-x--0----2----------8-8-8-8-8-8--|
|--9-9-9-9-x--9-9-9-9-x--9-9-9-9-x--9-9-9-9-x--2--0------------8-8-8-8-8-8--|
|--7-7-7-7-x--7-7-7-7-x--7-7-7-7-x--7-7-7-7-x--3---------------6-6-6-6-6-6--|
|---------------------------------------------------------------------------|

|--7-7-7-7-x--7-7-7-7-x--7-7-7-7-x--7-7-7-7-x--0-----------|
|--8-8-8-8-x--8-8-8-8-x--8-8-8-8-x--8-8-8-8-x--1-----------|
|--9-9-9-9-x--9-9-9-9-x--9-9-9-9-x--9-9-9-9-x--0--x-7-6-4--|
|--9-9-9-9-x--9-9-9-9-x--9-9-9-9-x--9-9-9-9-x--2--x-7-6-4--|
|--7-7-7-7-x--7-7-7-7-x--7-7-7-7-x--7-7-7-7-x--3--x-5-4-2--|
|----------------------------------------------------------|

|-------------------------------------------------------|
|-------------------------------------------------------|
|--9-9-9-11-11-11-12-12-12-14-14-14--5---0-7-------<7>--|
|--9-9-9-11-11-11-12-12-12-14-14-14--5---0-7---<7>------|
|--7-7-7-9--9--9--10-10-10-12-12-12--3---0-5------------|
|-------------------------------------------------------|

CHORUS
|--------------3------------------0--2-----0--0--------2h3p2--3-3-3-3-3-3-3-3-3-3--|
|--------0---3--------------------1--3-----0--1------3--------3-3-3-3-3-3-3-3-3-3--|
|---------------------------------0--2-----0--0----2----------0-0-0-0-0-0-0-0-0-0--|
|-----------------5-5-5-5-5-5-5---2--0-----2--2--0------------0-0-0-0-0-0-0-0-0-0--|
|-----------------5-5-5-5-5-5-5---3--------2--3---------------2-2-2-2-2-2-2-2-2-2--|
|-----------------3-3-3-3-3-3-3----------0--------------------3-3-3-3-3-3-3-3-3-3--|

|--0--2---0-0-0-0-----0-0-0-0--0--2---3-3-3-3-3-3-3-3-3-3-3-3--|
|--1--3---0-0-0-0-----0-0-0-0--1--3---3-3-3-3-3-3-3-3-3-3-3-3--|
|--0--2---0-0-0-0-----0-0-0-0--0--2---0-0-0-0-0-0-0-0-0-0-0-0--|
|--2--0---2-2-2-2--x--2-2-2-2--2--0---0-0-0-0-0-0-0-0-0-0-0-0--|
|--3------2-2-2-2--x--2-2-2-2--3------2-2-2-2-2-2-0-0-0-0-0-0--|
|---------0-0-0-0--x--0-0-0-0---------3-3-3-3-3-3--------------|

|-------------------------------------------------0----------|
|-------------------------------------------------0----------|
|--5-5-5-5-5-5-5-5-5-5-5-5-7-7-7-7-7-7-7-7-7-7-7--0---5---7--|
|--5-5-5-5-5-5-5-5-5-5-5-5-7-7-7-7-7-7-7-7-7-7-7--2---5---7--|
|--3-3-3-3-3-3-3-3-3-3-3-3-5-5-5-5-5-5-5-5-5-5-5--2---3---5--|
|-------------------------------------------------0----------|
PM . . . . . . . . . . . . . . . . . . . 

OUTRO
|--------10-------10-----------10-------10---------10-----10-----------------|
|--12-12----12-12----12--10-10----10-10----10--8-8----8-8----8--5-7-8-4--10--|
|----------------------------------------------------------------------------|
|----------------------------------------------------------------------------|
|----------------------------------------------------------------------------|
|----------------------------------------------------------------------------|


|--------10-------10-----------10----10h12-10---------10-----10-------------|
|--12-12----12-12----12--10-10----10----------10--8-8----8-8----8--5-7-8-4--|
|---------------------------------------------------------------------------|
|---------------------------------------------------------------------------| 
|---------------------------------------------------------------------------|
|---------------------------------------------------------------------------|

|-------------------------<12>------------|
|--10--10b12--7h8--------------<12>--<7>--|
|-----------------7-s9--------------------|
|-----------------------------------------|
|-----------------------------------------|
|-----------------------------------------|

____________________________________


// GUITAR 2 - DANNY
INTRO
01:13
Clean w/ Reverb
|-------------------------------|
|-------------------------------|
|----------0-------------0-2-0--|
|------4-----4-------4----------| x2
|----2---2---------2---2--------|
|--0-------------0--------------|

VERSE 1
|-----------------------------------------------------------|
|-----------------------------------------------------------|
|----------0-------------0---------5---7-7-7-----5---7-7-7--|
|------4-----4-------4-----4-----5---5---------5---5--------| 
|----2---2---------2---2-------3-------------3--------------|
|--0-------------0------------------------------------------|

|---------------------------------|
|-----------5-5-5-----------------|
|------7---------------5---7-7-7--|
|----7---7-----------5---5--------|
|--5---------------3--------------|
|---------------------------------|

|----------------------|
|----------------------|
|----------------------|
|------5---7-7---------| 
|----5---5------5-7-4--|
|--3------------3-5-2--|

|-----------------------------------------------------------|
|-----------------------------------------------------------|
|----------0-------------0---------5---7-7-7-----5---7-7-7--|
|------4-----4-------4-----4-----5---5---------5---5--------| 
|----2---2---------2---2-------3-------------3--------------|
|--0-------------0------------------------------------------|

|------------------------------------------------|
|-----------5-5-5--------------------------------|
|------7---------------5----7-7-7----------------|
|----7---7-----------5---5-----------------------|
|--5---------------3--------------5-5-5----------|
|---------------------------------3-3-3-5-5-5-3--|
PM                                . . . . . .

CHORUS
w/ Distortion
|----------------------------------------------------------|
|----------------------------------------------------------|
|--5--5---7--7--9-9-9-9-x--9-9-9-9-x-9-9-9-9-x--9-9-9-9-x--|
|--5--5---7--7--9-9-9-9-x--9-9-9-9-x-9-9-9-9-x--9-9-9-9-x--|
|--3--3---5--5--7-7-7-7-x--7-7-7-7-x-7-7-7-7-x--7-7-7-7-x--|
|----------------------------------------------------------|

|-------------------------------------------|
|-------------------------------------------|
|--5--0--7----------------------------------|
|--5--0--7--5-5-5-5-5-5-5-5-5-5-5--x-x-x-x--|
|--3--0--5--5-5-5-5-5-5-5-5-5-5-5--x-x-x-x--|
|-----------3-3-3-3-3-3-3-3-3-3-3--x-x-x-x--|

|--------------------------------------------------------|
|--------------------------------------------------------|
|--5--0---7---9-9-9-9-x--9-9-9-9-x-9-9-9-9-x--9-9-9-9-x--|
|--5--0---7---9-9-9-9-x--9-9-9-9-x-9-9-9-9-x--9-9-9-9-x--|
|--3--0---5---7-7-7-7-x--7-7-7-7-x-7-7-7-7-x--7-7-7-7-x--|
|--------------------------------------------------------|

|---------|
|---------|
|--5---7--|
|--5---7--|
|--3---5--|
|---------|
           
POST CHORUS
|-----------------10----15--|
|-------------8-12---12-----|
|--0------9-----------------|
|--0-2----------------------|
|--0-2----------------------|
|--0-0----------------------|

VERSE 2
Clean w/ Reverb
Strum and pick the chords a few times
|-------------------------------------------------------|
|-------------------------------------------------------|
|----0----------0------5------5---5---7----5------------|
|----2------2-----2----5----5---5-----7----5-----5---5--|
|----2----2---2--------3--3-----------5----3-----5---5--|
|--0----0----------------------------------------3---3--|

|--------------------------------------------------------------------------------------|
|--------------------------------------------------------------------------------------|
|----0----------0----------5---5-------5---5------7---7-----5---5----------------------|
|----2------2-----2------5---5-------5---5------7---7-----5---5--------5---5--5-5-5-5--|
|----2----2---2--------3----------3-----------5---------3------------5---5----5-5-5-5--|
|--0----0----------------------------------------------------------3----------3-3-3-3--|

CHORUS
w/ Distortion
|----------------------------------------------------------|
|----------------------------------------------------------|
|--5--5---7--7--9-9-9-9-x--9-9-9-9-x-9-9-9-9-x--9-9-9-9-x--|
|--5--5---7--7--9-9-9-9-x--9-9-9-9-x-9-9-9-9-x--9-9-9-9-x--|
|--3--3---5--5--7-7-7-7-x--7-7-7-7-x-7-7-7-7-x--7-7-7-7-x--|
|----------------------------------------------------------|

|----------------------------------------|
|----------------------------------------|
|--5--7----------------------------------|
|--5--7--5-5-5-5-5-5-5-5-5-5-5--x-x-x-x--|
|--3--5--5-5-5-5-5-5-5-5-5-5-5--x-x-x-x--|
|--------3-3-3-3-3-3-3-3-3-3-3--x-x-x-x--|

|----------------------------------------------------|
|----------------------------------------------------|
|--5--7---9-9-9-9-x--9-9-9-9-x-9-9-9-9-x--9-9-9-9-x--|
|--5--7---9-9-9-9-x--9-9-9-9-x-9-9-9-9-x--9-9-9-9-x--|
|--3--5---7-7-7-7-x--7-7-7-7-x-7-7-7-7-x--7-7-7-7-x--|
|----------------------------------------------------|

|---------|
|---------|
|--5---7--|
|--5---7--|
|--3---5--|
|---------|

BRIDGE
|---------------------------------------------------|
|---------------------------------------------------|
|------------------5-5-5-5-5-5-5-5-7-7-7-7-8-8-8-8--|
|--2-2-2-2-2-2-2-2-5-5-5-5-5-5-5-5-7-7-7-7-8-8-8-8--|
|--2-2-2-2-2-2-2-2-3-3-3-3-3-3-3-3-5-5-5-5-6-6-6-6--|
|--0-0-0-0-0-0-0-0----------------------------------|

|------------------------------------------------------------------|
|------------------------------------------------------------------|
|------------------5-5-5-5-5-5-5-5--x-7-7-7-6-6-6-4-4-4-4-4-4-4-4--|
|--2-2-2-2-2-2-2-2-5-5-5-5-5-5-5-5--x-7-7-7-6-6-6-4-4-4-4-4-4-4-4--|
|--2-2-2-2-2-2-2-2-3-3-3-3-3-3-3-3--x-5-5-5-4-4-4-2-2-2-2-2-2-2-2--|
|--0-0-0-0-0-0-0-0-------------------------------------------------|

|---------------------------------------------------|
|---------------------------------------------------|
|--9-9-9-9-9-9-8-8-8-8-8-7-7-7-7-7-6-6-6-6-6-5---7--|
|--9-9-9-9-9-9-8-8-8-8-8-7-7-7-7-7-6-6-6-6-6-5---7--|
|--7-7-7-7-7-7-6-6-6-6-6-5-5-5-5-5-4-4-4-4-4-3---5--|
|---------------------------------------------------|
                   
CHORUS
|------------------------------------------------------|
|-------------------7h8-7------------------------------|
|--5--7--------8h10------------------------------------|
|--5--7----7h9-----------------------------------------|
|--3--5---------------------x-x-10--12--5-5-5-5-5-5-5--|
|--------0------------------x-x-8---10--3-3-3-3-3-3-3--|

|-----------------------------------------------------------|
|-----------------------------------------------------------|
|--5--7---9-9-9-9-x--9-9-9-9-x-9-9-9-9-x--9-9-9-9-x--5---7--|
|--5--7---9-9-9-9-x--9-9-9-9-x-9-9-9-9-x--9-9-9-9-x--5---7--|
|--3--5---7-7-7-7-x--7-7-7-7-x-7-7-7-7-x--7-7-7-7-x--3---5--|
|-----------------------------------------------------------|

|------------------------------------------------------------------------------------------------|
|--10b12--10b12--10b12-10b12-10b12-10b12-10b12r-8---7-8-8h10--8p7-5-7----------------------------|
|------------------------------------------------------------------------------------------------|
|----------------------------------------------------------------------7b9r-5--7b9rb9-5-------5--|
|---------------------------------------------------------------------------------------7-5-7----|
|------------------------------------------------------------------------------------------------|

|--10-10----10----10----10--------10-----------|
|--10-10b12-10b12-10b12-10b12===--10b12---5-8--|
|---------------------------------------9------|
|----------------------------------------------|
|----------------------------------------------|
|----------------------------------------------|

|------------12------------------12-----------------12-----------------12--------|
|---------12----15p12---------12----15p12--------12----15p12--------12----15p12--|
|--14b16---------------14b16---------------14b16--------------14b16--------------|
|--------------------------------------------------------------------------------|
|--------------------------------------------------------------------------------|
|--------------------------------------------------------------------------------|

|--12--------12--------12----------15----15----15----15----17----17----17----17-----|
|----------------------------------15b17-15b17-15b17-15b17-17b19-17b19-17b19-17b19--|
|------14b16-----14b16-----14b16----------------------------------------------------|
|-----------------------------------------------------------------------------------|
|-----------------------------------------------------------------------------------|
|-----------------------------------------------------------------------------------|

|--15-14-12----12------------------------------------------------------|
|-----------15----15-12---8---10-10b12rp8-----8-x-x-8--8-x-8--7==7~~\--|
|-----------------------9---9-------------9----------------------------|
|----------------------------------------------------------------------|
|----------------------------------------------------------------------|
|----------------------------------------------------------------------|

OUTRO
(not the exact amount of strums)
Clean
|--3---2---3---0---3---3---2---3---0---3---0--|
|--3---3---3---1---4---3---3---3---1---4---0--|
|--0---2---0---2---5---0---2---0---2---5---0--|
|--0---0---2---0---5---0---0---2---0---5---2--|
|--2-------2---3---3---2-------2---3---3---2--|
|--3-------0-----------3-------0-----------0--|
   G   D   Em7 C   Cm  G   D   Em7 C   Cm  Em

=====================
s - slide
x - muted string
<#> - natural harmonic
PM - palm mute
h - hammer on
p - pull off
\x - pick scrape
= - hold note
======================
Tap to rate this tab
# A B C D E F G H I J K L M N O P Q R S T U V W X Y Z