Song name
# A B C D E F G H I J K L M N O P Q R S T U V W X Y Z

Mcfly - Transylvania Acoustic tab

e-----------------------------------------------------------------|
B-----------------------------------------------------------------|
G-------------------2-----2-------4-----4-------------------------|
D-----5-----5-----4---4-4---4---5---5-5---5-----5-----5-----------|
A---7---7-7---7-------------------------------3---3-3---3---------|
E-----------------------------------------------------------------|


e-----------------------------------------------------------------|
B-----------------------------------------------------------------|
G-------------------2-----2-------4-----4-------------------------|
D-----5-----5-----4---4-4---4---5---5-5-----5-5-5-5-5-5-5-5-5-5---|
A---7---7-7---7-----------------------------3-3-3-3-3-3-3-3-3-3---|
E-----------------------------------------------------------------|
Tap to rate this tab
# A B C D E F G H I J K L M N O P Q R S T U V W X Y Z