Song name
# A B C D E F G H I J K L M N O P Q R S T U V W X Y Z

Mcfly - Stay With Me tab

Hey everyone! this my tab of the single Stay With Me , I hope you can play the
song.. it's not that difficult.. :)
Before you play it , hear the song carefully..

INTRO: (Play x3 the whole intro)

The Strumming is allways the same


e----x-----x------x------x-------x-----x-----  ---x-----x--------x--|
B----x-----x------x------x-------x-----x-----  ---x------x-------x--|
G----11----12-----11-----9------10-----9-----  ---4------5-------4--|
D----12----12-----12----10------10----10-----  ---5------5-------5--|
A----12----12-----12----10------10----10-----  ---5------5-------5--|
E----x-----x-------x----x------x-------x-----  ---x------x-------x--|
Strumming:
     x2   x2    x4    x2     x2     x4           x2     2x     x4

                                               |________x2_________|
After the keyboard: (0:29)

B-x----x----x-----x-----x-----x-----x----x-----x-----x------x----x-|
G-4----5----4-----5-----6-----7-----9---10-----9-----4------5----4-|
D-5----5----5-----6-----7-----7-----10--10----10-----5------5----5-|
A-5----5----5-----6-----7-----7-----10--10----10-----5------5----5-|
E-x----x----x-----x-----x-----x-----x----x-----x-----x------x----x-|

Verse:

B-x---x----x-----x-----x-----x-----x---x-----x------x-----x---x-|
G-4---5----4------6-----7-----6-----9--10-----9-----4-----5---4-|
D-5---5----5------7-----7-----7----10--10----10-----5-----5---5-|
A-5---5----5------7-----7-----7----10--10----10-----5-----5---5-|
E-x---x----x------x-----x-----x----x----x-----x-----x-----x---x-|


(1:02) Mini Solo

e|---------      --------       -----------|
B|------3-       ------5-       --------8--|
G|--3/4--- x5    --5/6--- x5    ----8/9----|  x5


And Then: (Im not sure about that part, I use something like
 this to fill that part)

e|---------3--0-------|
B|---3b-------3--2--0-|

Verse:

B-x---x----x-----x-----x-----x-----x---x-----x------x-----x---x-|
G-4---5----4------6-----7-----6-----9--10-----9-----4-----5---4-|
D-5---5----5------7-----7-----7----10--10----10-----5-----5---5-|
A-5---5----5------7-----7-----7----10--10----10-----5-----5---5-|
E-x---x----x------x-----x-----x----x----x-----x-----x-----x---x-|

Chorus: (Just like the verse)
B-x---x----x-----x-----x-----x-----x---x-----x------x-----x---x-|
G-4---5----4------6-----7-----6-----9--10-----9-----4-----5---4-|
D-5---5----5------7-----7-----7----10--10----10-----5-----5---5-|
A-5---5----5------7-----7-----7----10--10----10-----5-----5---5-|
E-x---x----x------x-----x-----x----x----x-----x-----x-----x---x-|


(1:02) Mini Solo

e|-----------       ------------      -----15--|
B|-------15--  x5   -------17--- x5   15/16----| x5
G|--15/16----       --17/18-----      ---------|


And Then:
B|-------15-|
G|--15/16---|  x5
D|----------|

Verse:
B-x---x----x-----x-----x-----x-----x---x-----x------x-----x---x-|
G-4---5----4------6-----7-----6-----9--10-----9-----4-----5---4-|
D-5---5----5------7-----7-----7----10--10----10-----5-----5---5-|
A-5---5----5------7-----7-----7----10--10----10-----5-----5---5-|
E-x---x----x------x-----x-----x----x----x-----x-----x-----x---x-|


Chorus: (Just like the verse)
B-x---x----x-----x-----x-----x-----x---x-----x------x-----x---x-|
G-4---5----4------6-----7-----6-----9--10-----9-----4-----5---4-|
D-5---5----5------7-----7-----7----10--10----10-----5-----5---5-|
A-5---5----5------7-----7-----7----10--10----10-----5-----5---5-|
E-x---x----x------x-----x-----x----x----x-----x-----x-----x---x-|

Bridge:
B----x-----x-----x-----x---x--|
G----4-----5-----6-----9---8--|
D----5-----6-----7-----8---9--|
A----5-----6-----7-----8---9--|
E----x-----x-----x-----x---x--|

INTRO:

e----x-----x------x-----x-------x-----x----- ---x-----x--------x----x--|
B----x-----x------x-----x-------x-----x----- ---x------x-------x----x--|
G---11----12------11-----9------10----9----- ---4------5-------4----5--|
D---12----12------12----10------10---10----- ---5------5-------5----5--|
A---12----12------12----10------10---10----- ---5------5-------5----5--|
E----x-----x-------x----x------x------x----- ---x------x-------x----x--|

Mini Solo: (x2)

B|------15---------13-----------11-----------10--------8-|
G|-15/16------13/14------- 11/12-------10/11--------8/9--|

After the solo:
e----x-----x------x----x-------x----x----  --x-|
B----x-----x------x----x------x-----x----  --x-|
G---11----12-----11----9-----10-----9----  --4-|
D---12----12-----12---10-----10----10----  --5-|   Let Ring
A---12----12-----1----10-----10----10----  --5-|
E----x----x------x-----x-----x------x----  --x-|

Keyboard and again

e----x-----x----x-----x----x----x----|
B----x-----x----x-----x----x----x----|
G---11-----12---11---9----10----9----|
D---12-----12---12---10---10----10---|
A---12-----12---12---10---10----10---|
E----x-----x----x----x-----x----x----|

Drums and then:

Chorus: (x5)
B-x---x----x------x-----x-----x----x----x-----x-----x-----x---x-|
G-4---5----4------6-----7-----6----9---10-----9-----4-----5---4-|
D-5---5----5------7-----7-----7----10--10----10-----5-----5---5-|
A-5---5----5------7-----7-----7----10--10----10-----5-----5---5-|
E-x---x----x------x-----x-----x----x----x-----x-----x-----x---x-|


e----x-----x-----x------x------x------x-----|
B----x-----x-----x------x------x------x-----|
G---11----12-----11-----9-----10------9-----|
D---12----12-----12-----10----10-----10-----|
A---12----12-----12-----10----10-----10-----|
E---x------x-----x------x------x------x-----|

Outro: (Twice) Slide the chords

e---x-----x-----x--------x-|
B---x-----x-----x--------x-|
G---8-----7-----6--------4-|
D---9-----8-----7--------5-|    (2nd Time Let Ring)
A---9-----8-----7--------5-|
E---x-----x-----x--------x-|

 X=Mute the string
b= blend
/= slide
Tap to rate this tab
# A B C D E F G H I J K L M N O P Q R S T U V W X Y Z