Song name
# A B C D E F G H I J K L M N O P Q R S T U V W X Y Z

Mcfly - One For The Radio tab

			    ONE FOR THE RADIO - McFly
Tabbed by: Tasha


Tuning:Standard

e|----------------------------------------------------------------------|
B|-2--------------------------------------------------------------------|
G|-2--------------------------------------------------------------------|
D|-2--6--4--99999999999999999999999-999999-888888-666666-444444---------|
A|----4--2--77777777777777777777777-777777-666666-444444-222222-777777--|
E|--------------------------------------------------------------555555--|

e|--------------------------------------------------------------------------|
B|--------------------------------------------------------------------------|
G|--------------------------------------------------------------------------|
D|---------------222222-999999-888888-666666-444444----------------------2--|
A|-666666-444444-222222-777777-666666-444444-222222-777777-666666-444444-2--|
E|-444444-222222------------------------------------555555-444444-222222----|

e|------------------------------------------------------------------|
B|------------------------------------------------------------------|
G|------------------------------------------------------------------|
D|-9-----444-9-----444-666-444---------------------------4xxx4xxx4--|
A|-7-6-7-222-7-6-7-222-444-222-777-666-4xxx4xxx-7xxx7xxx-2xxx2xxx2--|
E|---4-5-------4-5-------------555-444-2xxx2xxx-5xxx5xxx------------|

e|--------------------------------------------------------|
B|--------------------------------------------------------|
G|--------------------------------------------------------|
D|-----------44-9-4--------666666-9--------9-8-6-----444--|
A|-6-7777777-22-7-2-777777-444444-7-777777-7-6-4-444-222--|
E|-4-5555555--------555555----------555555-------222------|

e|--------------------------------------------------------------------|
B|--------------------------------------------------------------------|
G|--------------------------------------------------------------------|
D|-99999999999999999999999-999999-888888-666666-444444----------------|
A|-77777777777777777777777-777777-666666-444444-222222-777777-666666--|
E|-----------------------------------------------------555555-444444--|

e|-------------------------------------------------------------------|
B|-------------------------------------------------------------------|
G|-------------------------------------------------------------------|
D|--------222222-999999-888888-666666-444444----------------------2--|
A|-444444-222222-777777-666666-444444-222222-777777-666666-444444-2--|
E|-222222------------------------------------555555-444444-222222----|

e|------------------------------------------------------------------|
B|------------------------------------------------------------------|
G|------------------------------------------------------------------|
D|-9-----444-9-----444-666-444---------------------------4xxx4xxx4--|
A|-7-6-7-222-7-6-7-222-444-222-777-666-4xxx4xxx-7xxx7xxx-2xxx2xxx2--|
E|---4-5-------4-5-------------555-444-2xxx2xxx-5xxx5xxx------------|

e|--------------------------------------------------------|
B|--------------------------------------------------------|
G|--------------------------------------------------------|
D|-----------44-9-4--------666666-9--------9-8-6-----444--|
A|-6-7777777-22-7-2-777777-444444-7-777777-7-6-4-444-222--|
E|-4-5555555--------555555----------555555-------222------|


e|--------------------------------------------------------------------------|
B|--------------------------------------------------------------------------|
G|--------------------------------------------------------------------------|
D|-999999999999--101010101010101010101010-11-11-11-11-11-11-11-11-11-11-11--|
A|-777777777777--8-8-8-8-8-8-8-8-8-8-8-8--9--9--9--9--9--9--9--9--9--9--9---|
E|--------------------------------------------------------------------------|

e|-------------------------------------------------------------------------|
B|-------------------------------------------------------------------------|
G|-------------------------------------------------------------------------|
D|-11--12-12-12-12-12-12-12-12-12-12-12-12--13-13-13-13-13-13-13-13-13-13--|
A|-9---10-10-10-10-10-10-10-10-10-10-10-10--11-11-11-11-11-11-11-11-11-11--|
E|-------------------------------------------------------------------------|

e|-------------------------------------------------------------------------|
B|-------------------------------------------------------------------------|
G|-------------------------------------------------------------------------|
D|-13-13--14-14-14-14-14-14-14-14-14-14-14-14--15-15-15-15-15-15-15-15-15--|
A|-11-11--12-12-12-12-12-12-12-12-12-12-12-12--13-13-13-13-13-13-13-13-13--|
E|-------------------------------------------------------------------------|

e|--------------------------------------------------------------------|
B|--------------------------------------------------------------------|
G|--------------------------------------------------------------------|
D|-15-15-15--16-16-16-16-16-16-16-16-16-16-16-16----9----9----6-------|
A|-13-13-13--14-14-14-14-14-14-14-14-14-14-14-14----7----6----4----7--|
E|-----------------------------------------------------------------5--|

e|----------------------------------------------------------|
B|----------------------------------------------------------|
G|----------------------------------------------------------|
D|-9----9----6----------------------------------------------|
A|-7----6----4----7-----------------------------------------|
E|----------------5-----------------------------------------|

e|----------------------------------------------------------|
B|----------------------------------------------------------|
G|----------------------------------------------------------|
D|-----------44-9-4--------666666-9--------9-8-6-----444-2--|
A|-6-7777777-22-7-2-777777-444444-7-777777-7-6-4-444-222-2--|
E|-4-5555555--------555555----------555555-------222--------|

e|--------------------------------------------------------|
B|--------------------------------------------------------|
G|--------------------------------------------------------|
D|-----------44-9-4--------666666-9--------9-8-6-----444--|
A|-6-7777777-22-7-2-777777-444444-7-777777-7-6-4-444-222--|
E|-4-5555555--------555555----------555555-------222------|

e|--------------------------------------------------------------------------|
B|--------------------------------------------------------------------------|
G|--------------------------------------------------------------------------|
D|---------------222222-999999-888888-666666-444444----------------------2--|
A|-666666-444444-222222-777777-666666-444444-222222-777777-666666-444444-2--|
E|-444444-222222------------------------------------555555-444444-222222----|

e|------------------------------------------------------------------------|
B|------------------------------------------------------------------------|
G|------------------------------------------------------------------------|
D|---------------222222-999999-888888-666666-444444-----------------------|
A|-666666-444444-222222-777777-666666-444444-222222-777777-666666-444444--|
E|-444444-222222------------------------------------555555-444444-222222--|

e|------------------------------------------------------------------------|
B|------------------------------------------------------------------------|
G|------------------------------------------------------------------------|
D|-222--------------------------------------------------------------------|
A|-222--------------------------------------------------------------------|
E|------------------------------------------------------------------------|

| /  slide up
| \  slide down
| h  hammer-on
| p  pull-off
| ~  vibrato
| +  harmonic
| x  Mute note
Tap to rate this tab
 
# A B C D E F G H I J K L M N O P Q R S T U V W X Y Z