Song name
# A B C D E F G H I J K L M N O P Q R S T U V W X Y Z

Mcfly - Pov tab

This is my firs tab!
Title : POV (point of view)
Artist: Mcfly
Album: Radio:ACTIVE

Intro/Verse:

---------------------------------------------------------------2-------2-2-2-3-|
--------3----------3-3-3---------------3--------3-3-3------3-------3-----------|
-------------------------0----------------------------4------2-------2---------|
---0----------0------------------0----------0------------0-------0-------------|
-------------------------------------------------------------------------------|
-3---3------3---3-------------2-----2-----2---2--------------------------------|
             Repeat 3 times

Pre Chorus (but every single words...)

---------------------------------------------------------------------|
---1--1--1--1--1--1--1--1--1--1--1--1--1--3--------------------------|
---0--0--0--0--0--0--0--0--0--0--0--0--0--0--------------------------|
---2--2--2--2--2--2--2--2--2--2--2--2--2--2--------------------------|
---3--3--3--3--3--3--3--3--3--3--3--3--3--3--------------------------|
---------------------------------------------------------------------|

Chorus

----------------------------------------------------------------------|
----------------------------------------------------------------------|
---------------------------------4-4-4-4-4-4-4-4-4-4-4-4-4-4-4-4------|
-2-2-2-2-2-2-2-2-2-2-2-2-2-2-2-2-4-4-4-4-4-4-4-4-4-4-4-4-4-4-4-4------|
-2-2-2-2-2-2-2-2-2-2-2-2-2-2-2-2-2-2-2-2-2-2-2-2-2-2-2-2-2-2-0-2------|
-0-0-0-0-0-0-0-0-0-0-0-0-0-0-0-0--------------------------------------|

----------------------------------------------------------------------|
----------------------------------------------------------------------|
-5-5-5-5-5-5-5-5-5-5-5-5-5-5-5-5--------------------------------------|
-5-5-5-5-5-5-5-5-5-5-5-5-5-5-5-5-5-5-5-5-5-5-5-5-5-5-5-5--4-4-4-4-----|
-3-3-3-3-3-3-3-3-3-3-3-3-3-3-3-3-5-5-5-5-5-5-5-5-5-5-5-5--4-4-4-4-----|
---------------------------------3-3-3-3-3-3-3-3-3-3-3-3--2-2-2-2-----|

----------------------------------------------------------------------|
----------------------------------------------------------------------|
---------------------------------4-4-4-4-4-4-4-4-4-4-4-4-4-4-4-4------|
-2-2-2-2-2-2-2-2-2-2-2-2-2-2-2-2-4-4-4-4-4-4-4-4-4-4-4-4-4-4-4-4------|
-2-2-2-2-2-2-2-2-2-2-2-2-2-2-2-2-2-2-2-2-2-2-2-2-2-2-2-2-2-2-0-2------|
-0-0-0-0-0-0-0-0-0-0-0-0-0-0-0-0--------------------------------------|

----------------------------------------------------------------------|
----------------------------------------------------------------------|
--5-5-5-5-5-5-5-5-5-5-5-5-5-5-5-5--7-7-7-7-7-7-7-7-7-7-7-7-7-7-7-7----|
--5-5-5-5-5-5-5-5-5-5-5-5-5-5-5-5--7-7-7-7-7-7-7-7-7-7-7-7-7-7-7-7----|
--3-3-3-3-3-3-3-3-3-3-3-3-3-3-3-3--5-5-5-5-5-5-5-5-5-5-5-5-5-5-5-5----|
----------------------------------------------------------------------|

the piano plays and then play the verse twice and the pre chorus once

then play chorus as written before, but play the 577 (at the end of the chorus) 8 times 
of 16). and then play:

----------------------|
----------------------|
----------------------|
--8-8-8-8-8-8-8-8-----|
--8-8-8-8-8-8-8-8-----|
--6-6-6-6-6-6-6-6-----|

Solo:

------------------------------------------------------------------------|
------------------------------------------------------------------------|
---9----13---14---16---19--17--16--14--12--11--12--11--7--11--12--------|
---x----xx---xx---xx---xx--xx--xx--xx--xx--xx--xx--xx--x--xx--xx--------|
---7----11---12---14---17--15--14--12--10--9---10--9---5--9---10--------|
------------------------------------------------------------------------|

------------------------------------------------------------------------|
---------------------------------------12--13--15--18-----17--15--13----|
---14---17--16--14--16--12--11--9--9---13--14--16--19-----17--16--14----|
---xx---xx--xx--xx--xx--xx--xx--x--x---xx--xx--xx--xx-----xx--xx--xx----|
---12---15--14--12--14--10--9---7--7---11--12--14--17-----15--14--12----|
------------------------------------------------------------------------|

------------------------------------------------------------------------|
------------------------------------------------------------------------|
-17-17-17-17-17-17-17-17-17-17-17-17-17--19-19-19-19-19-19-19-19--------|
-xx-xx-xx-xx-xx-xx-xx-xx-xx-xx-xx-xx-xx--xx-xx-xx-xx-xx-xx-xx-xx--------|
-15-15-15-15-15-15-15-15-15-15-15-15-15--17-17-17-17-17-17-17-17--------|
------------------------------------------------------------------------|

------------------------------------------------------------------------|
------------------------------------------------------------------------|
-20-20-20-20-20-20-20-20--22-22-22-22-22-22-22-22-----------------------|
-xx-xx-xx-xx-xx-xx-xx-xx--xx-xx-xx-xx-xx-xx-xx-xx-----------------------|
-18-18-18-18-18-18-18-18--20-20-20-20-20-20-20-20-----------------------|
------------------------------------------------------------------------|

let the piano play an then
Play chorus
play verse 4 times

END.
Tap to rate this tab
# A B C D E F G H I J K L M N O P Q R S T U V W X Y Z