Song name
# A B C D E F G H I J K L M N O P Q R S T U V W X Y Z

Mcfly - Star Girl tab

Star Girl by McFly Tab
Standard Tuning - Capo 1st Fret (Depending on the tone of your voice)

NOTES:
This tab was made for a single guitar, not two.
You'll have to get the rythm yourself.

I made this tab using both the:
-Acoustic live version from this video http://www.youtube.com/watch?v=hDunpDtpRJc
-and Using this video http://www.youtube.com/watch?v=lbgFcqgeqgc&feature=related


(Verse 1:)
|0----2----5
|0----2----5
|1----3----6
|2----4----7
|2----4----7
|0----2----5

|0----2----5----7
|0----2----5----7
|1----3----6----8
|2----4----7----9
|2----4----7----9
|0----2----5----7


(Chorus:)
|0----0----2----2
|0----0----2----2
|1----2----3----4  (x2)
|2----2----4----4
|2----0----4----2
|0----0----2----0

|0----0----2----2----2----4----5----7----0
|0----0----2----2----2----4----5----7----0
|1----2----3----4----3----5----6----8----1
|2----2----4----4----4----6----7----9----2
|2----0----4----2----4----6----7----9----2
|0----0----2----0----2----4----5----7----0


(Verse 2:)
|0----2----5
|0----2----5
|1----3----6
|2----4----7
|2----4----7
|0----2----5

|0----2----5----7
|0----2----5----7
|1----3----6----8
|2----4----7----9
|2----4----7----9
|0----2----5----7


(Chorus:)
|0----0----2----2
|0----0----2----2
|1----2----3----4  (x2)
|2----2----4----4
|2----0----4----2
|0----0----2----0

|0----0----2----2----2----4----5----7----0
|0----0----2----2----2----4----5----7----0
|1----2----3----4----3----5----6----8----1
|2----2----4----4----4----6----7----9----2
|2----0----4----2----4----6----7----9----2
|0----0----2----0----2----4----5----7----0


(Bridge:)
|0----0----0----2----0----2----2
|5----1----1----3----2----4----3
|4----2----0----2----2----4----2
|5----3----2----0----2----4----0
|3----0----3----0----0----2----0
|0----0----0----0----0----2----0

|0----0----0----0----0----3----0----2----5
|5----1----1----1----0----3----2----2----5
|4----2----0----2----2----3----2----4----7
|5----2----2----3----3----5----2----4----7
|3----0----3----0----3----5----0----2----5
|0----0----0----0----1----3----0----0----0

|0----2----5----7
|0----2----5----7
|1----3----6----8
|2----4----7----9
|2----4----7----9
|0----2----5----7


(Ending Chorus:)
|0----0----2----2
|0----0----2----2
|1----2----3----4  (x2)
|2----2----4----4
|2----0----4----2
|0----0----2----0

|0----0----2----2----2----4----5----7
|0----0----2----2----2----4----5----7
|1----2----3----4----3----5----6----8
|2----2----4----4----4----6----7----9
|2----0----4----2----4----6----7----9
|0----0----2----0----2----4----5----7

|2----4----5----7----0
|2----4----5----7----0
|3----5----6----8----1
|4----6----7----9----2
|4----6----7----9----2
|2----4----5----7----0
Tap to rate this tab
# A B C D E F G H I J K L M N O P Q R S T U V W X Y Z