Song name
# A B C D E F G H I J K L M N O P Q R S T U V W X Y Z

Mcfly - Dragon Ball tab

McFly
Dragon Ball(demo)


G* 355x5x

Main Riff:
e|-------2-2---0------------2-2---0--------|
B|---------------4-2-0--------------4-2-0--|
G|----4------------------------------------|
D|-----------------------6------2----------|
A|----2------2-----------------------------|
E|-----------------------4------0----------|
      B                 G#m     E


  B
Picking up the pieces
      B/Bb  
Of my heart left on the floor
              B/a
Like it was written in the stars
            G#m
That I was ment for something more
            G*                    B
Now I'm a one man army fighting everybody's war
         F#
Will I survive?
        F#
I must survive

e|-------------------|
B|-------------------|
G|---4-4-4-4---------|        X6
D|---4-4-4-4---------|
A|---2-2-2-2---------|
E|-------------------|

e|--------------|
B|--------------|
G|----4-4-4-4---|
D|----2-2-2-2---|
A|----2-2-2-2---|
E|--------------|

 
The world is on my shoulders
So much pressure to prevail
This is the story of my life
And it's a sad and lonely tale
So what's the point in tryin if your destiny's to fail
You won't survive
But I must survive

Chorus:
    E
I'm on the run
     B
From everyone
       F#                G#m    F# G#m
Where moons and stars collide 
My back's up
 E             
Against the world
      B
I'll never fall
     F#   
When I find all the dragon balls

e|--------------|
B|--------------|
G|--------------|
D|------6-6-6-6-|    X4
A|------6-6-6-6-|
E|------4-4-4-4-|


Nights are long and restless
Danger's always somewhere near
And I'm not sayin' I'm a hero
But I'm prepared to face the fear
I will send evil runnin' when they hear my army ???
We will survive
Yes we will survive

Chorus:
I'm on the run
From everyone
Where moons and stars collide
My back's up
Against the world
I'll never fall
When I find all the dragon balls

Solo: (didn't manage to tab it yet but will soon)
      

B
Evil start forgiving(?)
B/Bb
We will never give it
B/a
Until we're not livin'
Gm          B
Do you hear me?

B
Evil start forgiving(?)
B/Bb
We will never give it
B/a
Until we're not livin'
Gm           B
Can you hear me?

B
Evil start forgiving(?)
B/Bb
We will never give it
B/a
Until we're not livin'
Gm           B
Can you hear me?

Chorus:
I'm on the run
From everyone
Where moons and stars collide
My back's up
Against the world
I'll never fall
When I find all the dragon balls

-not too sure about some parts but it sounds ok.if anyone knows better please let me know-



Tap to rate this tab
# A B C D E F G H I J K L M N O P Q R S T U V W X Y Z