Song name
# A B C D E F G H I J K L M N O P Q R S T U V W X Y Z

Mcfly - Party Girl tab

INTRO
       E
Ooh oh oh
   C#m        G#
Oh oh,  oh oh oh oh oh oh oh oh
       Em
Ooh oh oh
E   C#m        G#
Oh oh,  oh oh oh oh oh oh oh oh

VERSE
            
The clock hit 12, as she entered the room
|-------------------------------------------------|
|-------------------------------------------------|
|-------------------------------------------------|
|-------------4-6-------6------6---44-------------|
|-------------------------------------------------|
|-----------------4---4---4--4---4----------------|

But if looks could kill then we all would be doomed
|-------------------------------------------------|
|-------------------------------------------------|
|-------------------------------------------------|
|4-6-------6------6---44--------------------------|
|-------------------------------------------------|
|----4---4---4--4---4-----------------------------|

With just one kiss you're not able to move
|-------------------------------------------------|
|-------------------------------------------------|
|-------------------------------------------------|
|4-6-------6------6---44--------------------------|
|-------------------------------------------------|
|----4---4---4--4---4-----------------------------|


From her venomous lips and the poison perfume
|-------------------------------------------------|
|-------------------------------------------------|
|-------------------------------------------------|
|4-6-------6------6---44--------------------------|
|-------------------------------------------------|
|----4---4---4--4---4-----------------------------|

Yeah!


She started swaying so sexy and looking at me, and it got me
|-------------------------------------------------|
|-------------------------------------------------|
|-------------------------------------------------|
|4-6-------6------6---44--------------------------|
|-------------------------------------------------|
|----4---4---4--4---4-----------------------------|

Caught in a mind control
|-------------------------------------------------|
|-------------------------------------------------|
|-------------------------------------------------|
|4-6-------6------6---44--------------------------|
|-------------------------------------------------|
|----4---4---4--4---4-----------------------------|

This place is prison I'm chained up, I give up and I'm out of mercy
|-------------------------------------------------|
|-------------------------------------------------|
|-------------------------------------------------|
|4-6-------6------6---44--------------------------|
|-------------------------------------------------|
|----4---4---4--4---4-----------------------------|

She wouldn't let me go
|-------------------------------------------------|
|-------------------------------------------------|
|-------------------------------------------------|
|4-6-------6------6---4---------------------------|
|-------------------------------------------------|
|----4---4---4--4---4-----------------------------|

CHORUS
                      E               C#m
She said she likes to dance all by herself
                          G#
'Cause she's a party girl
              E            F    C#m
And she don't care for nobody else
                       G#
She's in her own world 
                                      E    F C#m      D# G#
I love this little party girl (Ooh oh oh oh oh oh oh oh oh)
                                      E    F C#m      D# G#
I love this little party girl (Ooh oh oh oh oh oh oh oh oh)

She's such a little party girl


VERSE
                      
I, I gotta leave this 
room, 'cause it's starting to spin
|-------------------------------------------------|
|-------------------------------------------------|
|-------------------------------------------------|
|4-6-------6------6---44--------------------------|
|-------------------------------------------------|
|----4---4---4--4---4-----------------------------|

But There's no escape from this mess that I'm in
|-------------------------------------------------|
|-------------------------------------------------|
|-------------------------------------------------|
|------------4-6-------6------6---44--------------|
|-------------------------------------------------|
|----------------4---4---4--4---4-----------------|

She can't resist the temptation is in
|-------------------------------------------------|
|-------------------------------------------------|
|-------------------------------------------------|
|------------4-6-------6------6---44--------------|
|-------------------------------------------------|
|----------------4---4---4--4---4-----------------|

So pull your collar up before she sinks her teeth in,
|-------------------------------------------------|
|-------------------------------------------------|
|-------------------------------------------------|
|------------4-6-------6------6---44--------------|
|-------------------------------------------------|
|----------------4---4---4--4---4-----------------|

Yeah!


She started swaying so sexy
|-------------------------------------------------|
|-------------------------------------------------|
|-------------------------------------------------|
|------------4-6-66-------------------------------|
|----------------66-------------------------------|
|----------------44-------------------------------|

And looking at me
|-------------------------------------------------|
|-------------------------------------------------|
|-------------------------------------------------|
|----------------66-------------------------------|
|----------------66-------------------------------|
|----------------44-------------------------------|

And it got me 

caught in a mind control
|-------------------------------------------------|
|-------------------------------------------------|
|-------------------------------------------------|
|4-6-------6------6---44--------------------------|
|-------------------------------------------------|
|----4---4---4--4---4-----------------------------|


This place is prison
|-------------------------------------------------|
|-------------------------------------------------|
|-------------------------------------------------|
|----------------66-------------------------------|
|----------------66-------------------------------|
|----------------44-------------------------------|

I'm chained up

I give up and
|-------------------------------------------------|
|-------------------------------------------------|
|-------------------------------------------------|
|----66-------------------------------------------|
|----66-------------------------------------------|
|----44-------------------------------------------|

I'm out of mercy
|-------------------------------------------------|
|-------------------------------------------------|
|-------------------------------------------------|
|--------------44---------------------------------|
|-------------------------------------------------|
|-------------------------------------------------|

She wouldn't let me go
|-------------------------------------------------|
|-------------------------------------------------|
|-------------------------------------------------|
|4-6-------6--------------------------------------|
|-------------------------------------------------|
|----4---4---4------------------------------------|

CHORUS
                      E               C#m
She said she likes to dance all by herself
                          G#
'Cause she's a party girl
              E            F    C#m
And she don't care for nobody else
                       G#
She's in her own world 
                                      E    F C#m      D# G#
I love this little party girl (Ooh oh oh oh oh oh oh oh oh)
                                      E    F C#m      D# G#
She's such a little party girl (Ooh oh oh oh oh oh oh oh oh)

She's such a little party girl

***(SYNTHESIZER)***

Such a little party girl

YEEEAH!

CHORUS
     E            F   C#m
She likes to dance all by herself
                  D#      G#
'Cause she's a party girl
          E           F    C#m
She don't care for nobody else
              D#       G#
She's in her own world 
                                      E    F C#m      D# G#
I love this little party girl (Ooh oh oh oh oh oh oh oh oh)
                                      E    F C#m      D# G#
She's such a little party girl (Ooh oh oh oh oh oh oh oh oh)

She's such a little party girl

*Ending*

|----------------------------------------------|
|----------------------------------------------|
|----------------------------------------------|
|44-6-----------------44-6---------------------|
|----------6-----6-----------------------------|
|-----4--4---4-4---4-------4~------------------|
Tap to rate this tab
 
# A B C D E F G H I J K L M N O P Q R S T U V W X Y Z