Mcfly - That Girl tab

*I tried to get the chords and tabs of this song but it seemed like some parts were here
some parts were there, so I decided to put it all together. I got the pieces from here:
here 	http://www.ultimate-guitar.com/tabs/m/mcfly/that_girl_solo_tab.htm and here 
Here’s a video that might
you http://www.youtube.com/watch?v=bNQr6BQyQhI and the video to the song 
Enjoy!!!
Capo 1st Fret
Intro
e|-----------11-11----------9-9---------4-----------7-6-4-----------|
B|--------11-11-11--------9-9-9-----4-6-4-6-4-4-6-4-------7-4-------|
G|--11-12------------9-10---------5-----5-6-5-----------------7-6-4-|
D|------------------------------------------------------------------|
A|------------------------------------------------------------------|
E|------------------------------------------------------------------|

G                    C
Went out with the guys
                G
And before my eyes
D                                   D
There was this girl she looked so fine


|-11-11-9-9-8-8-------------|
|---------------11-11-9-----|
|---------------------------|
|---------------------------|
|---------------------------|
|---------------------------|
				  C
And I wish that she was mine

And I said

|-8-----8--6----6--4-4-4-4-4-4-4-4-4---------|
|------------------4-4-4-4-4-4-4-4-4---------|
|----8~------8~------------------------------|
|--------------------------------------------|
|--------------------------------------------|
|--------------------------------------------|

                   G
And my friends said (Never get her etc...)
               C
But I didn't care
                                G
Cause I loved her long blond hair
                  D
Love was in the air.

		  G
She looked at me

               C
And the rest is history
G                                      D                    C
Dude you're being silly cause you're never gonna get that girl.
            D
And you're never gonna get that girl.

G
We spoke for hours
     C
(She) took off my trousers
G                              D
Spent the day laughing in the sun.


|-11-11-9-9-8-8-------------|
|---------------11-11-9-----|
|---------------------------|
|---------------------------|
|---------------------------|
|---------------------------|

C
And my friends they all looked stunned


|-8-----8--6----6--4-4-4-4-4-4-4-4-4---------|
|------------------4-4-4-4-4-4-4-4-4---------|
|----8~------8~------------------------------|
|--------------------------------------------|
|--------------------------------------------|
|--------------------------------------------|

             G
And my friends said (She's amazing etc...)
                        C
It gave me more street cred
                     G
I dug the book she read
              D
How can I forget?
                G
She rocks my world
                     C
More than any other girl
G                         D                           C
Dude she's amazing and I can't believe you got that girl.
       D
And I can't believe you got that girl.

Bm                 C
She looked incredible
                 Bm
Just turned seventeen
               C
I guess my friends were right
                  Bm
She's out of my league
                D
So what am I to do
                      C   Cm
She's too good to be true-ue.

Solo
e|--------------------------------------------------------------|
B|--6-6-6-6p4---6p4---6p4---6p4---6p4-----------4-4-------------|
G|--6-6-6-6p4---6p4---6p4---6p4---6p4-----------4-4-------------|
D|--6-6-6-6p4-6-6p4-6-6p4-6-6p4-6-6p4-6-4---6-x-4-4-6----6/////-|
A|------------6-----6-----6-----6-----6-4---6-x-----6----6/////-|
E|--------------------------------------------------------------|

----------------------------------------------------------------------|
-------------------------------------------12-14-14b16-16-16b14-12----|
-11-11-11-11-11-11-11-11-11-11-11-11-11-13-------------------------13-|
-13-13-13-13-13-13-13-13-13-13-13-13-13-------------------------------|
----------------------------------------------------------------------|
----------------------------------------------------------------------|

----------------------------------------------------------------------------|
-------12-------12-------12-------12-------12-------------------------------|
-11h13----11h13----11h13----11h13----11h13------11-13-11--------------------|
---------------------------------------------------------13\\\9-11-11b13b11-|
----------------------------------------------------------------------------|
----------------------------------------------------------------------------|

-----------------------------------------------------------------------------|
----------------------------6b7b6--------------------------------------------|
-------13-------------------6b8b6-5-6----------------------------------------|
-11b13----13b11-9----11-9-------------6-4-----------4------------------------|
------------------11------------------------6-5-4-2---2----------------------|
----------------------------------------------------------14\\\\\\\\\\\\--4--|


G
But three days later
C
Went round to see her
G                         D
But she was with another guy.

|-11-11-9-9-8-8-------------|
|---------------11-11-9-----|
|---------------------------|
|---------------------------|
|---------------------------|
|---------------------------|


  C
But I never asked her why, and since then

|-8-----8--6----6--4-4-4-4-4-4-4-4-4---------|
|------------------4-4-4-4-4-4-4-4-4---------|
|----8~------8~------------------------------|
|--------------------------------------------|
|--------------------------------------------|
|--------------------------------------------|


                   G
And my friends said (Such a pity etc...)
                C
I let her slip away
                    G
They tell me every day
                D
That it will be OK
               G
She rocks my world
                     C    Cm
More than any other girl
G                              D                        C
Dude it's such a pity and I'm sorry that you lost that girl
          D                        G
And I'm sorry that you lost that girl.
Tap to rate this tab
 
# A B C D E F G H I J K L M N O P Q R S T U V W X Y Z