Song name
# A B C D E F G H I J K L M N O P Q R S T U V W X Y Z

Mcfly - My Heart Will Go On tab

McFly
My heart will go on
This is a cover of Celine Dions wonderful song by McFly :)

INTRO:
E|-0---------------------------------------------|
B|---7-7-9-9-7-5-7-12-9-7-5-2-0------------------|
G|-----------------------------------------------|
D|-----------------------------------------------|
A|-----------------------------------------------|
E|-----------------------------------------------|

E|-0-------------------------------0-------------|
B|---7-7-9-9-7-5-7-12-9-12-14-12-7---------------|
G|-----------------------------------------------|
D|-----------------------------------------------|
A|-----------------------------------------------|
E|-----------------------------------------------|

VERS:
E|-----------------------------------------------|
B|-----------------------------------------------|
G|-9-9-9-9-9-9-9-9--4-4-4-4-4-4-4-4--------------|
D|-9-9-9-9-9-9-9-9--4-4-4-4-4-4-4-4--------------|
A|-7-7-7-7-7-7-7-7--2-2-2-2-2-2-2-2--------------|
E|-----------------------------------------------|

E|-----------------------------------------------|
B|-----------------------------------------------|
G|------------------4-4-4-4-4-4-4-4--------------|
D|-7-7-7-7-7-7-7-7--4-4-4-4-4-4-4-4--------------|
A|-7-7-7-7-7-7-7-7--2-2-2-2-2-2-2-2--------------|
E|-5-5-5-5-5-5-5-5-------------------------------|

E|-----------------------------------------------|
B|-----------------------------------------------|
G|-9-9-9-9-9-9-9-9--4-4-4-4-4-4-4-4--------------|
D|-9-9-9-9-9-9-9-9--4-4-4-4-4-4-4-4--------------|
A|-7-7-7-7-7-7-7-7--2-2-2-2-2-2-2-2--------------|
E|-----------------------------------------------|

E|-----------------------------------------------|
B|-----------------------------------------------|
G|-----------------------------------------------|
D|-7-7-7-7-7-7-7-7-7-7-7-7-7-7-7-7---------------|
A|-7-7-7-7-7-7-7-7-7-7-7-7-7-7-7-7---------------|
E|-5-5-5-5-5-5-5-5-5-5-5-5-5-5-5-5---------------|
REPEAT VERSE

CHORUS:
E|-----------------------------------------------|
B|-----------------------------------------------|
G|-9-9-9-9--4-4-4-4-----------4-4-4-4------------|
D|-9-9-9-9--4-4-4-4--7-7-7-7--4-4-4-4------------|
A|-7-7-7-7--2-2-2-2--7-7-7-7--2-2-2-2------------|
E|-------------------5-5-5-5---------------------|

E|-----------------------------------------------|
B|-----------------------------------------------|
G|-9-9-9-9--4-4-4-4------------------------------|
D|-9-9-9-9--4-4-4-4--7-7-7-7-7-7-7-7-------------|
A|-7-7-7-7--2-2-2-2--7-7-7-7-7-7-7-7-------------|
E|-------------------5-5-5-5-5-5-5-5-------------|
REPEAT CHORUS

THEN REPEAT VERSE AND CHORUS

STICK:
Same as intro x2

CHORUS

INTRO
Tap to rate this tab
 
# A B C D E F G H I J K L M N O P Q R S T U V W X Y Z