Mcfly - Dynamite tab

McFly cover Taio Cruz's Dynamite

e-----------------------------------|
B------------9------------7---------|
G------------9------------8---------|
D-----------11------------9---------|
A-----------------------------------|
E-----------------------------------|
  I came to dance, dance, dance, dance

e-----------------------------------|
B---12------------14----------------|
G---13------------14----------------|
D---14------------14----------------|
A-----------------------------------|
E-----------------------------------|
  I hit the floor

e-----------------------------------|
B-------------------9------------7--|
G-------------------9------------8--|
D------------------11------------9--|
A-----------------------------------|
E-----------------------------------|
  ĎCause thatís my, plans, plans, plans, plans

e-----------------------------------|
B-----12------------14--------------|
G-----13------------14--------------|
D-----14------------14--------------|
A-----------------------------------|
E-----------------------------------|
  Iím wearing all my favorite

e-----------------------------------|
B------------9------------7---------|
G------------9------------8---------|
D-----------11------------9---------|
A-----------------------------------|
E-----------------------------------|
  Brands, brands, brands, brands

e----------------------------------------------------------|
B--12-----14----------------9-----------7--------12---14---|
G--13-----14----------------9-----------8--------13---14---|
D--14-----14---------------11-----------9--------14---14---|
A----------------------------------------------------------|
E----------------------------------------------------------|
  Give me space for both my hands, hands, hands, hands
  You, you

e-----------------------------------------|
B------------9------------7-------12---14-|
G------------9------------8-------13---14-|
D-----------11------------9-------14---14-|
A-----------------------------------------|
E-----------------------------------------|
  Cause it goes on and on and on

e-------------------------------------------|
B--------------9------------7------12---14--|
G--------------9------------8------13---14--|
D-------------11------------9------14---14--|
A-------------------------------------------|
E-------------------------------------------|
  And it goes on and on and on

 in this part you can give it your own rhytm
e------------------------------------------------|
B------------------------------------------------|
G----9--9--9-7-7-7-7-7-7-7-7-12-12-12-14-14-14---|
D----9--9--9-8-8-8-8-8-8-8-8-13-13-13-14-14-14---|
A---11-11-11-9-9-9-9-9-9-9-9-14-14-14-14-14-14---|
E------------------------------------------------|
  I throw my hands up in the air sometimes
  Saying Aaaaayooooo   Gotta let go
  I wanna celebrate and live my life
  Saying Aaaaayooooo   Baby, letís go

e--------------------------------------------------------|
B------------------------------------------------2-2-2-2-|
G----------------6-6-6-6-6-4-4-4-4-4-4-4-1-1-1-1-2-2-2-2-|
D----------------6-6-6-6-6-4-4-4-4-4-4-4-2-2-2-2-2-2-2-2-|
A----------------4-4-4-4-4-2-2-2-2-2-2-2-2-2-2-2-0-0-0-0-|
E----------------------------------------0-0-0-0---------|
  ĎCause we goní rock this club  We goní go all night

e--------------------------------------------------------|
B-----------------------------------2-----2--------------|
G---------6-6-6-6-4-4-4-4-4-4-4-1-1-2-1-1-2--------------|
D---------6-6-6-6-4-4-4-4-4-4-4-1-1-2-1-1-2--------------|
A---------4-4-4-4-2-2-2-2-2-2-2-2-2-0-2-2-0--------------|
E-------------------------------0-0---0-0----------------|
  We goní light it up Like itís dynamite

e--------------------------------------------------------|
B-------------------------------------2-2----------------|
G--------6-6-6-6-6-4-4-4-4-4-1-1-1----2-2----------------|
D--------6-6-6-6-6-4-4-4-4-4-2-2-2----2-2----------------|
A--------4-4-4-4-4-2-2-2-2-2-2-2-2----0-0----------------|
E----------------------------0-0-0-----------------------|
  Cause I told you once Now I told you twice
  We goní light it up  Like itís dynamite

e-----------------------------------|
B------------9------------7---------|
G------------9------------8---------|
D-----------11------------9---------|
A-----------------------------------|
E-----------------------------------|
  I came to move, move, move, move

e----------------------------------------------------------|
B--12-----14----------------9-----------7--------12---14---|
G--13-----14----------------9-----------8--------13---14---|
D--14-----14---------------11-----------9--------14---14---|
A----------------------------------------------------------|
E----------------------------------------------------------|
  Get out the way me and my crew, crew, crew, crew

e-------------------------------------------|
B--------------9------------7------12---14--|
G--------------9------------8------13---14--|
D-------------11------------9------14---14--|
A-------------------------------------------|
E-------------------------------------------|
  Iím in the club so Iím gonna do, do, do, do
 Just drop the phone, came here to do, do, do, do

Yeah, yeah

e------------------------------------------|
B------------9------------7-------12---14--|
G------------9------------8-------13---14--|
D-----------11------------9-------14---14--|
A------------------------------------------|
E------------------------------------------|
  Cause it goes on and on and on

e------------------------------------------|
B------------9------------7-------12---14--|
G------------9------------8-------13---14--|
D-----------11------------9-------14---14--|
A------------------------------------------|
E------------------------------------------|
  And it goes on and on and on

e------------------------------------------------|
B------------------------------------------------|
G----9--9--9-7-7-7-7-7-7-7-7-12-12-12-14-14-14---|
D----9--9--9-8-8-8-8-8-8-8-8-13-13-13-14-14-14---|
A---11-11-11-9-9-9-9-9-9-9-9-14-14-14-14-14-14---|
E------------------------------------------------|
  I throw my hands up in the air sometimes
  Saying Aaaaayooooo   Gotta let go
  I wanna celebrate and live my life
  Saying Aaaaayooooo   Baby, letís go

e--------------------------------------------------------|
B------------------------------------------------2-2-2-2-|
G----------------6-6-6-6-6-4-4-4-4-4-4-4-1-1-1-1-2-2-2-2-|
D----------------6-6-6-6-6-4-4-4-4-4-4-4-2-2-2-2-2-2-2-2-|
A----------------4-4-4-4-4-2-2-2-2-2-2-2-2-2-2-2-0-0-0-0-|
E----------------------------------------0-0-0-0---------|
  ĎCause we goní rock this club  We goní go all night

e--------------------------------------------------------|
B-----------------------------------2-----2--------------|
G---------6-6-6-6-4-4-4-4-4-4-4-1-1-2-1-1-2--------------|
D---------6-6-6-6-4-4-4-4-4-4-4-1-1-2-1-1-2--------------|
A---------4-4-4-4-2-2-2-2-2-2-2-2-2-0-2-2-0--------------|
E-------------------------------0-0---0-0----------------|
  We goní light it up Like itís dynamite

e--------------------------------------------------------|
B-------------------------------------2-2----------------|
G--------6-6-6-6-6-4-4-4-4-4-1-1-1----2-2----------------|
D--------6-6-6-6-6-4-4-4-4-4-2-2-2----2-2----------------|
A--------4-4-4-4-4-2-2-2-2-2-2-2-2----0-0----------------|
E----------------------------0-0-0-----------------------|
  Cause I told you once Now I told you twice
  We goní light it up  Like itís dynamite

Iím gonna take it all out
Iím gonna be the last one standing
Iím alone and all I
Iím gonna be the last one landing
ĎCause I, I, Believe it
And I, I, I
I just want it all
I just want it all
so put your hands in the air
Hands in the air
Put your hands in the air, air, air,air, air

e----------------               e----------------|
B-----------2----               B----------------|
G--6--4--1--2----               G----------------|
D--6--4--2--2----     x4        D----------------|  pick scarpe
A--4--2--2--0----               A--x-x-x-x-x-x---|
E--------0-------               E--x-x-x-x-x-x---|


  (No chords)

  I throw my hands up in the air sometimes
  Saying Aaaaayooooo  Gotta leeeet go   <--(slide the strings)

e--------------------------------------------|
B--------------------------------2-2-2-2-2---|
G--6-6-6-6-4-4-4-4-4-4-1-1-1-1-1-2-2-2-2-2---|
D--6-6-6-6-4-4-4-4-4-4-2-2-2-2-2-2-2-2-2-2---|
A--4-4-4-4-2-2-2-2-2-2-2-2-2-2-2-0-0-0-0-0---|
E----------------------0-0-0-0-0-------------|
  I wanna celebrate and live my life
  Saying Aaaaayooooo  Baby, letís go

e--------------------------------------------------------|
B------------------------------------------------2-2-2-2-|
G----------------6-6-6-6-6-4-4-4-4-4-4-4-1-1-1-1-2-2-2-2-|
D----------------6-6-6-6-6-4-4-4-4-4-4-4-2-2-2-2-2-2-2-2-|
A----------------4-4-4-4-4-2-2-2-2-2-2-2-2-2-2-2-0-0-0-0-|
E----------------------------------------0-0-0-0---------|
  ĎCause we goní rock this club  We goní go all night

e--------------------------------------------------------|
B-----------------------------------2-----2--------------|
G---------6-6-6-6-4-4-4-4-4-4-4-1-1-2-1-1-2--------------|
D---------6-6-6-6-4-4-4-4-4-4-4-1-1-2-1-1-2--------------|
A---------4-4-4-4-2-2-2-2-2-2-2-2-2-0-2-2-0--------------|
E-------------------------------0-0---0-0----------------|
  We goní light it up Like itís dynamite

e--------------------------------------------------------|
B-------------------------------------2-2----------------|
G--------6-6-6-6-6-4-4-4-4-4-1-1-1----2-2----------------|
D--------6-6-6-6-6-4-4-4-4-4-2-2-2----2-2----------------|
A--------4-4-4-4-4-2-2-2-2-2-2-2-2----0-0----------------|
E----------------------------0-0-0-----------------------|
  Cause I told you once Now I told you twice
  We goní light it up  Like itís dynamite
Tap to rate this tab
 
# A B C D E F G H I J K L M N O P Q R S T U V W X Y Z