Song name
# A B C D E F G H I J K L M N O P Q R S T U V W X Y Z

Mcfly - 5 Colours In Her Hair tab

am sorry if this is a little sketchy but it is my first tab so not to great at tabbing

e-----------------------------------------------------------------------------|
B-----------------------------------------------------------------------------|
G-----------------------------------------------------------------------------|
D---------------------0-3-5-5-3-5-3-------------0-3-5-5-3-5-3-------------0-3-|
A---------0-3-3-1-3-3---------------5-4-3-1-3-3---------------5-4-3-1-3-3-----|
E-3-1-3-3---------------------------------------------------------------------|

e------------------------------|   X2
B------------------------------|
G------------------------------|
D-5-5-5-5-5-5-5-5-5-5-5-5-5----|
A------------------------------|
E------------------------------|
Tap to rate this tab
 
# A B C D E F G H I J K L M N O P Q R S T U V W X Y Z