Mcfly - Party Girl tab

Tabbed by: Rzykill
Tuning: Standard (EADGBE)

Decided to tab out this song as all the tabs were in Chords. So decided to tab it into 
chords. Sorry if its not accurate, but this is my first time tabbing here. So yeah. Hope 
good enough. :)
Ps. I tab this according to their LIVE performance.

INTRO (x2)

Ooh oh oh~
E|-------------------------------------------------|
B|-------------------------------------------------|
G|------9~-----------------------------------------|
D|------9~-----------------------------------------|
A|------7~-----------------------------------------|
E|-------------------------------------------------|

Oh oh~  oh oh oh oh oh oh oh oh
E|-------------------------------------------------|
B|-------------------------------------------------|
G|--6~---------------------------------------------|
D|--6~--------66-66-66-66-6-6----------------------|
A|--4~--------66-66-66-66-6-6----------------------|
E|------------44-44-44-44-4-4----------------------|

VERSE 1 (00:16) (x2)
(Listen to the song and follow the rhythem. Im just listing the notes out)

The clock hits 12....~
E|-------------------------------------------------|
B|-------------------------------------------------|
G|-------------------------------------------------|
D|4-6-------6------6---4-6-4-6-------6------6---4--|
A|------------------------------------------------6|
E|----4---4---4--4---4----------4---4---4--4---4---|

E|-------------------------------------------------|
B|-------------------------------------------------|
G|-------------------------------------------------|
D|4-6-------6------6---4-6-4-6-------6------6---4--|
A|------------------------------------------------6|
E|----4---4---4--4---4----------4---4---4--4---4---|


CHORUS (00:46) (x2)

She said she likes to dance...~
E|-------------------------------------------------|
B|-------------------------------------------------|
G|-999999-88-666666-88-----------------------------|
D|-999999-88-666666-88-66-66-66-66-6-6-------------|
A|-777777-66-444444-66-66-66-66-66-6-6-------------|
E|---------------------44-44-44-44-4-4-------------|

And she don't care for nobody else..~
E|-------------------------------------------------|
B|-------------------------------------------------|
G|-999999-1111-666666-88---------------------------|
D|-999999-1111-666666-88-66-66-66-66-6-6-----------|
A|-777777--9-9-444444-66-66-66-66-66-6-6-----------|
E|-----------------------44-44-44-44-4-4-----------|


VERSE 2 (01:20)

I, I gotta leave this room...~
E|-------------------------------------------------|
B|-------------------------------------------------|
G|-------------------------------------------------|
D|4-6-------6------6---4-6-4-6-------6------6---4--|
A|------------------------------------------------6|
E|----4---4---4--4---4----------4---4---4--4---4---|

E|-------------------------------------------------|
B|-------------------------------------------------|
G|-------------------------------------------------|
D|4-6-------6------6---4-6-4-6-------6------6---4--|
A|------------------------------------------------6|
E|----4---4---4--4---4----------4---4---4--4---4---|

**Here comes the tricky part. You got to listen to the timings**
(01:37) She started swaying so sexy...~
E|-------------------------------------------------|
B|-------------------------------------------------|
G|-------------------------------------------------|
D|------------4-6-66-------------------------------|
A|----------------66-------------------------------|
E|----------------44-------------------------------|

And looking at me...~
E|-------------------------------------------------|
B|-------------------------------------------------|
G|-------------------------------------------------|
D|----------------66-------------------------------|
A|----------------66-------------------------------|
E|----------------44-------------------------------|

And it got me caught in a mind control...~
E|-------------------------------------------------|
B|-------------------------------------------------|
G|-------------------------------------------------|
D|4-3~-4-6---6------6---4-6------------------------|
A|-------------------------------------------------|
E|--------4---4--4---4-----------------------------|

This place is prison...~
E|-------------------------------------------------|
B|-------------------------------------------------|
G|-------------------------------------------------|
D|----------------66-------------------------------|
A|----------------66-------------------------------|
E|----------------44-------------------------------|

I'm chained up,
I give up and...~
E|-------------------------------------------------|
B|-------------------------------------------------|
G|-------------------------------------------------|
D|----66-------------------------------------------|
A|----66-------------------------------------------|
E|----44-------------------------------------------|

I'm out of mercy...~
E|-------------------------------------------------|
B|-------------------------------------------------|
G|-------------------------------------------------|
D|---6---4-6---------------------------------------|
A|-------------------------------------------------|
E|-4---4-------------------------------------------|

She wouldn't let me go...~
|-------------------------------------------------|
|-------------------------------------------------|
|-------------------------------------------------|
|4-6-------6---66666666---------------------------|
|--------------66666666---------------------------|
|----4---4---4-44444444---------------------------|

CHORUS

She said she likes to dance...~
E|-------------------------------------------------|
B|-------------------------------------------------|
G|-999999-88-666666-88-----------------------------|
D|-999999-88-666666-88-66-66-66-66-6-6-------------|
A|-777777-66-444444-66-66-66-66-66-6-6-------------|
E|---------------------44-44-44-44-4-4-------------|

And she don't care for nobody else..~
E|-------------------------------------------------|
B|-------------------------------------------------|
G|-999999-1111-666666-88---------------------------|
D|-999999-1111-666666-88-66-66-66-66-6-6-----------|
A|-777777--9-9-444444-66-66-66-66-66-6-6-----------|
E|-----------------------44-44-44-44-4-4-----------|

Bridge(Basically its all quiet)

Repeat Chorus

Outro (This is what they played LIVE if you listened.)

E|----------------------------------------------|
B|----------------------------------------------|
G|----------------------------------------------|
D|-4-6------6-----6-----------------------------|
A|----------------------------------------------|
E|-----4--4---4-4---4--444~---------------------|

Cheers! :)
Tap to rate this tab
 
# A B C D E F G H I J K L M N O P Q R S T U V W X Y Z