Song name
# A B C D E F G H I J K L M N O P Q R S T U V W X Y Z

Mcfly - Ill Be Your Man chords

Highlighted       Show chord diagrams
Here's my shot at tabbing this song, I love it! Corrections welcome.

Intro Riff:
|------------------------------------------------------|
|------------------------------------------------------|
|----------------------------------------------------- |
|-------------------------------4----------------------|
|------4--------------------4-7---4-7---4p2p0----------|
|--4-7---4-7----4p2p0-5-----------------------0--------| x2

Intro Chords: E, A5
E:  x22100
A5: 002200

Verse 1:
E                          A5
Been all around the world,
                           E
I've never met a girl,
                           A5
That does the things you do,
                           
And puts me in the mood,
    E                           
To love you, and treat you right,
    A5                             
So come here, and close your eyes,
E                             
Lie back, release your mind,
            A5
And let the world fall down when I'm by your side.




Chorus:
E    F#m G#m A   G#m         F#m
I'll be your man through the fire,
E        F#m  G#m  A     G#m               E
And I'll hold your hand through the flames,
E    F#m G#m A  G#m F#m
I'll be the one you desire,
A5                                A
Honey, 'cause I want you to understand,
A    G#m F#m E
I'll be your man.

|------------------0---|
|------------------0---|
|------------------2---|
|------------------2---|
|------4-----------0---|
|--4-7---4-7----4s-0---| 
     G#m F#m E
I'll be your man.

    E                       A5
|------------------------------------------------------|
|------------------------------------------------------|
|----------------------------------------------------- |
|-------------------------------4----------------------|
|------4--------------------4-7---4-7---4p2p0----------|
|--4-7---4-7----4p2p0-5-----------------------0--------|




Verse 2:
E                           A5
I can lay with you for days,
                        E
And years can pass away, 
                            A5
There's lipstick on my face,
                             
And I love the way you taste.
        E                             
And I'm right here, so lock the door,
            A5
Because you need me, but I need you more,
E                                     
And I don't care, about your mistakes,
             A5
Because they all went away when I found you Katie.



Chorus:
E    F#m G#m A   G#m         F#m
I'll be your man through the fire,
E        F#m  G#m  A     G#m               E
And I'll hold your hand through the flames,
E    F#m G#m A  G#m F#m
I'll be the one you desire,
A5    
Honey, 'cause I want you to understand,
A    G#m F#m E
I'll be your man.

|------------------0---|
|------------------0---|
|------------------2---|
|------------------2---|
|------4-----------0---|
|--4-7---4-7----4s-0---| 
     G#m F#m E
I'll be your man.


Guitar solo: E, A5

Final Chorus:
E    F#m G#m A   G#m         F#m
I'll be your man through the fire,
E        F#m  G#m  A     G#m               E
And I'll hold your hand through the flames,
E    F#m G#m A  G#m F#m
I'll be the one you desire,
A5    
Honey, 'cause I want you to understand,
A    G#m F#m E
I'll be your man.

|-17-17-17-17s16-16-16-16s14-14-14-14s12-12-12-12--|
|--------------------------------------------------|
|--------------------------------------------------|
|--------------------------------------------------|
|--------------------------------------------------|
|--------------------------------------------------| 
     G#m F#m E
I'll be your man.

E, A5 until end.

Tap to rate this tab
 
# A B C D E F G H I J K L M N O P Q R S T U V W X Y Z