Song name
# A B C D E F G H I J K L M N O P Q R S T U V W X Y Z

Mcfly - I Need A Woman tab

			     I Need A Woman - McFly
-------------------------------------------------------------------------------
Tabbed by:Beappelin Floyd
Email:

Tuning:

riff:
e|----------------------|
B|----------------------|
G|----------------------|   
D|----------------------|
A|---------3-------1----|
E|--1--1/5-------3------|

intro: 4x riff

verse 1:

riff 1 x3 then
e|----------------------|
B|----------------------|
G|----------------------|   
D|----------------------|
A|---------3--5\3-------|
E|--1--1/5--------------|

riff 2 x2

e|----------------------|
B|----------------------|
G|----------------------|   
D|----------3----1------|
A|--1--1/5-----3--------|
E|----------------------|

riff 1 x2

verse 2:

riff 1 x3 then
e|----------------------|
B|----------------------|
G|----------------------|   
D|----------------------|
A|---------3--5\3-------|
E|--1--1/5--------------|

riff 2 x2

e|----------------------|
B|----------------------|
G|----------------------|   
D|----------3----1------|
A|--1--1/5-----3--------|
E|----------------------|

riff 1 x2

Pre Chorus:

C                        
When it gets to midnight,
  
Bb  C
   I'm in my bed alone.

Bb  C               
   Your all I want,

Bb  C  
   your all I need.

Bb  C
   It's cold in the night but I'm looking for the heat baby

Chorus:

F            Am    
I, I need a woman. 
         Bb         
Not any woman 
        F                 C
but a woman who needs me too.

Let me tell you baby

F            Am              Bb         F                  C
I, I need a woman. Not any woman but a woman who needs me too.
Hey! So how about you

Intro
Verse 1
Verse 2
Prechorus
Chorus
Intro (riff x2 not x4)
Verse 3
Prechorus
Chorus until the end


Tap to rate this tab
 
# A B C D E F G H I J K L M N O P Q R S T U V W X Y Z