Song name
# A B C D E F G H I J K L M N O P Q R S T U V W X Y Z

Mcfly - Ghostbusters tab

Intro
e----7-10-7-9-5---7777-5-7-------|
B--------------------------------|
G--------------------------------|  x4
D--------------------------------|
A--------------------------------|
E--------------------------------|
Ghostbusters!

           B             A  E
If there's something strange
B             A  E
in your neighborhood
B               A   E
Who you gonna call
    B         A   E
(Ghostbusters)

           B             A E
If there's something weird
B                     A  E
and it don't look good
B               A   E
Who you gonna call
    B         A   E
(Ghostbusters)

riff 1
e---10-----10-----10-----10-----10--------------------|
B------12-----12-----12-----12-----12---10-11-12------|
G-----------------------------------------------------|
D-----------------------------------------------------|
A-----------------------------------------------------|  x4
E-----------------------------------------------------|

e---10-----10-----10--1414-1414-14-~16----|
B-----12-----12---------------------------|
G-----------------------------------------|
D-----------------------------------------|
A-----------------------------------------|
E-----------------------------------------|
(I ain't afraid of no ghost)
(I ain't afraid of no ghost)

Intro
e----7-10-7-9-5---7777-5-7---77-10-7-9-5--2~2~2~2~----|
B-----------------------------------------------------|
G-----------------------------------------------------|
D-----------------------------------------------------|
A-----------------------------------------------------|
E-----------------------------------------------------|

          B              A  E
If there's something strange
B                        A  E
running through your head
B                A  E
Who you gonna call
   B          A  E
(Ghostbusters)

  B             A  E
An invisible man
       B          A  E
sleeping in your bed
   B              A  E
Oh Who you gonna call
   B          A  E
(Ghostbusters)

riff 1

I ain't afraid of no ghost
I ain't afraid of no ghost

Intro
e----7-10-7-9-5---7777-5-7---77-10-7-9-5--2~2~---------|
B------------------------------------------------------|
G------------------------------------------------------|
D------------------------------------------------------|
A------------------------------------------------------|
E------------------------------------------------------|

riff 2
e-10-9--------7-5------10-12-14p12s10----10-9-----------|
B------10~--------5~----------------------------10~-----|
G-------------------------------------------------------|
D-------------------------------------------------------|
A-------------------------------------------------------|
E-------------------------------------------------------|
 I ain't afraid of no ghost
 Nobody likes the ghost

Yeah
Yeah
Yeah
Yeah

e----7-10-7-9-5---7777-5-7-------|
B--------------------------------|
G--------------------------------|  x2
D--------------------------------|
A--------------------------------|
E--------------------------------|

     B          A          B
If you've had a dose of a freaky ghost
A         B            A  E
Maybe you'd better call
(Ghostbusters)

Who you gonna call  x10 no chords
(Ghostbusters)

BBBBBB AAA EEE  x2

1,2,3,4

B               A  E
Who you gonna call     ('till the end)
     B            A  E
(Ghostbusters)
                    B~
Oh who you gonna call

Chords

E: 022xxx or x799xx or xx2454
A: x022xx or 577655 or xx7655
B: x244xx or 799877 or xx9877
Tap to rate this tab
 
# A B C D E F G H I J K L M N O P Q R S T U V W X Y Z